Ads

Pokemon Center (Pokémon Ruby & Sapphire) Guitar Tab

Submitted: Apr 28, 2008 by anime (Last updated: Sep 12, 2009)

4.65
Average: 4.7 (20 votes)
Download | Listen
Game: Pokémon Ruby & Sapphire
Composer(s): Junichi Masuda, Go Ichinose, Morikazu Aold
Style: Transcription
Series: Pokemon

AutoScroll: Slow | Medium | Fast
|------------5-3-2-0---------------------2-0------2--0-------|
|----3---3-----------2------------2---2-------2-3------3-2-0-|
|------2------------------2-0-2-----2------------------------|
|------------------------------------------------------------|
|------------------------------------------------------------|
|------------------------------------------------------------|

|---------5-3-2-0---------------------2-0------------------2--5--3-5-3-2-0-|
|-3---3-----------2------------2---2-------2-3-----0-2-3-------------------|
|---2------------------2-0-2-----2---------------2-------------------------|
|--------------------------------------------------------------------------|
|--------------------------------------------------------------------------|
|--------------------------------------------------------------------------|

|------0--2-3-2-0-----2--5--3-2-3-5-7--5--3-2-3--2-3-2-0---| 
|----2------------3--------------------------------------3-| Repeat
|----------------------------------------------------------| as much
|----------------------------------------------------------| as
|----------------------------------------------------------| needed
|----------------------------------------------------------| 
Login or Register to remove this ad.

12 comments on Pokemon Center

Hey that was pretty good

Hey that was pretty good

That's Awsome

That's Awsome

Great job

5

Great job

Yeah very good keep it up!

5

Yeah very good keep it up!

Great one!

Flawless in my opinion!

I love this

5

I just got a guitar and i'm teaching myself to play and i'm using this and Matoyas Cave (from final fantasy)

And this is awesome ^^

this is very good asm work

this is very good asm work

This is awesome!!

5

This is awesome!!

Great!

5

Playing this on my guitar gave me nostalgia (Ruby was my first Pokemon game)!

=D

Beautiful

3

Learnt in 3 mins. Easy and accurate

Great job!

Awesome tab, really great one

5

Awesome tab, really great one

Wow

5

Fantastic job on the tab!:D One of the best tabs I've ever played before.XD