Battle Theme (Golden Sun) Guitar Tab

Submitted: Apr 21, 2008 by Zero (Last updated: Apr 21, 2008)

5
Average: 5 (7 votes)
Download | Listen
Game: Golden Sun
Composer(s): Motoi Sakuraba
Style: Transcription

AutoScroll: Slow | Medium | Fast
Golden Sun: Book One
Battle Theme


e------------------------------------------------------------]
b------------10-8--------------------------------------------]
g-9-7----7-9------10-9-7----7--------------------------------]
d-----10-----------------10----------------------------------]
a------------------------------------------------------------]
e------------------------------------------------------------]




e------------------------------------------------------------]
b--------------7--7-8-10-8-9---------------------------------]
g-8--8-9-11-9------------------------------------------------]
d------------------------------------------------------------]
a------------------------------------------------------------]
e------------------------------------------------------------]




e----------------------12-10-8-7-8-10---10-8-7----7----------]
b-10---10-12---12-13------------------8--------10----9-10-12-]
g----9-------9-----------------------------------------------]
d------------------------------------------------------------]
a------------------------------------------------------------]
e------------------------------------------------------------]




e------------------------------------------------------------]
b-13-10----12-10-8-10---8--10--------------------------------]
g-------10---------------------------------------------------]
d------------------------------------------------------------]
a------------------------------------------------------------]
e------------------------------------------------------------]




e------------------------------------------------------------]
b------------10-8--------------------------------------------]
g-9-7----7-9------10-9-7----7--------------------------------]
d-----10-----------------10----------------------------------]
a------------------------------------------------------------]
e------------------------------------------------------------]




e------------------------------------------------------------]
b--------------7--7-8-10-8-9---------------------------------]
g-8--8-9-11-9------------------------------------------------]
d------------------------------------------------------------]
a------------------------------------------------------------]
e------------------------------------------------------------]




e----------------------12-10-8-7-8-10---10-8-7----7----------]
b-10---10-12---12-13------------------8--------10----9-10-12-]
g----9-------9-----------------------------------------------]
d------------------------------------------------------------]
a------------------------------------------------------------]
e------------------------------------------------------------]




e-12-10-15-12-10-----------10---12-10-15--12-14-15-16-17-19--]
b----------------12--12-13-----------------------------------]
g------------------------------------------------------------]
d------------------------------------------------------------]
a------------------------------------------------------------]
e------------------------------------------------------------]




e------------------------------------------------------------]
b-13-12-13--12-10----10----13-12-13-12-13-15-----------------]
g-----------------12-------------------------14--------------]
d------------------------------------------------------------]
a------------------------------------------------------------]
e------------------------------------------------------------]




e------------------------------------------------------------]
b-13-12-13--12-10----10----13-12-13-12-13-15-----------------]
g-----------------12-------------------------14--------------]
d------------------------------------------------------------]
a------------------------------------------------------------]
e------------------------------------------------------------]



And for that weird warping synth thing you can do this


e------------------------------------------------------------]
b------------------------------------------------------------]
g-5b6--3b4--1b2---3b4----------------------------------------]
d------------------------------------------------------------]
a------------------------------------------------------------]
e------------------------------------------------------------]
Login or Register to remove this ad.

4 comments on Battle Theme

It's awesome, thank you so

5

It's awesome, thank you so much for doing this. I've been looking for it for a while now, and was unsuccessful. You guys are amazing.

No problem! I tried looking

No problem! I tried looking for tabs myself but came up empty handed. Thanks for the rating.

b-----13-12-13-12-13-15-17~--

b-----13-12-13-12-13-15-17~--15--

Would be a smoother way to end that last line before the restart, I think.

Awesome job mate, you should

Awesome job mate, you should do an tab on Golden Sun battle theme Brawl version, i think it's pretty awesome and the intro is just god! I just really want the intro ^^ Here it is: http://www.youtube.com/watch?v=lep3BQxrg6o&feature=related It's the time 0:12-0:55 i like most, so i got a great request for ya and that whould be if you plz could make a tab for that part, whould be so happy!