Login or Register to remove this ad.

A Place We Should Return To (Invincible Version) (Final Fantasy Tactics Advance) Guitar Tab

Submitted: Apr 30, 2008 by Kabukibear (Last updated: Jan 01, 2010)

5
Average: 5 (5 votes)
Download | Listen
Game: Final Fantasy Tactics Advance
Composer(s): Nobuo Uematsu, Hitoshi Sakimoto, Kaori Ohkoshi, Ayako Saso
Style: 2 or more instruments, Fingerstyle, Transcription
Series: Final Fantasy

AutoScroll: Slow | Medium | Fast

A Place We Should Return To (Invincible Version)                 
~White Melodies of Final Fantasy Tactics Advance~
Composed by:
Hitoshi Sakimoto, Nobuo Uematsu, Kaori Ohkoshi, Ayako Saso
Arranged by:
Yo Yamazaki, Akira Sasaki, Satoshi Henmi
Tabbed by: Justin Lincoln

Guitar 1



     W                   W                   W                 
E||-------------------|-------------------|-------------------|
B||-------------------|-------------------|-------------------|
G||-------------------|-------------------|-------------------|
D||-------------------|-------------------|-------------------|
A||-------------------|-------------------|-------------------|
E||-------------------|-------------------|-------------------|


                                                       |--3--|           
  W                   W                   Q    Q    E  T  T  T S  E  E   
-------------------|-------------------|-------3----L--3h-5p-3-3h-5--3--|
-------------------|-------------------|--------------------------------|
-------------------|-------------------|--------------------------------|
-------------------|-------------------|--------------------------------|
-------------------|-------------------|--------------------------------|
-------------------|-------------------|--------------------------------|


                       |---3--|                         
  Q    S S  E  Q    E  T   T  E     Q    Q    H         
--L----L-5s-8--L----L--8h-10p-8--|--L------------------|
---------------------------------|---------------------|
---------------------------------|---------------------|
---------------------------------|---------------------|
---------------------------------|---------------------|
---------------------------------|---------------------|


          |--3--|                                 |---3--|   |---3--|         
  Q    E  T  T  T S  E  E  Q       S  E.  Q    E  T   T  T   T  T   T  S E.   
--3----L--3h-5p-3-3h-5--3--L----|--5s-8---L----L--8h-10p-8h-10p-8h-10p-8-----|
--------------------------------|--------------------------------------------|
--------------------------------|--------------------------------------------|
--------------------------------|--------------------------------------------|
--------------------------------|--------------------------------------------|
--------------------------------|--------------------------------------------|


          |--3--|                                               
  Q    E  T  T  T S  E  E  Q       S  E.  Q    E    T T S Q     
--3----L--3h-5p-3-3h-5--3--L----|--5s-8---L----Ls--10----------|
--------------------------------|------------------------------|
--------------------------------|------------------------------|
--------------------------------|------------------------------|
--------------------------------|------------------------------|
--------------------------------|------------------------------|


                                                   |---3---|      
  Q     Q     Q    Q       E  E  E  E   Q     E    T   T   T   S  
-------12----10----8----|--7--8--L-------------------------------|
------------------------|-----------8--10-----Lh--12p-10h-12p-10-|
------------------------|----------------------------------------|
------------------------|----------------------------------------|
------------------------|----------------------------------------|
------------------------|----------------------------------------|


  Q     Q     Q    E   E      E  E   E   E   Q    Q     
-------12----10----8--10--|---L--8--12-----------------|
--------------------------|-------------10---L---------|
--------------------------|----------------------------|
--------------------------|----------------------------|
--------------------------|----------------------------|
--------------------------|----------------------------|


                                                   |---3---|      
  Q     Q     Q    Q       E  E  E  E   Q     E    T   T   T   S  
-------12----10----8----|--7--8--L-------------------------------|
------------------------|-----------8--10-----Lh--12p-10h-12p-10-|
------------------------|----------------------------------------|
------------------------|----------------------------------------|
------------------------|----------------------------------------|
------------------------|----------------------------------------|


                                                              |--3--|           
  Q     Q    Q    E     E      E      E  Q    Q      Q    E.  T  T  T H         
-------------8----L--8g12--|---L--12g10--8----X/--|----------------------------|
-------10------------------|------------------X/--|--8----8---6h-8p-6-L--------|
---------------------------|------------------X/--|----------------------------|
---------------------------|------------------X/--|----------------------------|
---------------------------|----------------------|----------------------------|
---------------------------|----------------------|----------------------------|


                                   |--3--|                                   
  Q.     S S Q    Q       Q    E.  T  T  T H           Q.     S S Q    Q     
-----------------------|----------------------------|-----------------------|
--6------L-8-5---------|--8----8---6h-8p-6-L--------|--6------L-8-5---------|
------------------7----|----------------------------|------------------7----|
-----------------------|----------------------------|-----------------------|
-----------------------|----------------------------|-----------------------|
-----------------------|----------------------------|-----------------------|


          |--3--|                                                 
  Q    E  T  T  T S  E  E  Q       S  E.  Q    E     T  T S Q     
--3----L--3h-5p-3-3h-5--3--L----|--5s-8---L----Ls--(10)----------|
--------------------------------|--------------------------------|
--------------------------------|--------------------------------|
--------------------------------|--------------------------------|
--------------------------------|--------------------------------|
--------------------------------|--------------------------------|


          |--3--|                                                 
  Q    E  T  T  T S  E  E  Q       S  E.  Q    E     T  T S Q     
--3----L--3h-5p-3-3h-5--3--L----|--5s-8---L----Ls--(10)----------|
--------------------------------|--------------------------------|
--------------------------------|--------------------------------|
--------------------------------|--------------------------------|
--------------------------------|--------------------------------|
--------------------------------|--------------------------------|


          |--3--|                                                 
  Q    E  T  T  T S  E  E  Q       S  E.  Q    E     T  T S Q     
--3----L--3h-5p-3-3h-5--3--L----|--5s-8---L----Ls--(10)----------|
--------------------------------|--------------------------------|
--------------------------------|--------------------------------|
--------------------------------|--------------------------------|
--------------------------------|--------------------------------|
--------------------------------|--------------------------------|


          |--3--|                                                 
  Q    E  T  T  T S  E  E  Q       S  E.  Q    E     T  T S Q     
--3----L--3h-5p-3-3h-5--3--L----|--5s-8---L----Ls--(10)----------|
--------------------------------|--------------------------------|
--------------------------------|--------------------------------|
--------------------------------|--------------------------------|
--------------------------------|--------------------------------|
--------------------------------|--------------------------------|


                                                     |---3---|      
  Q     Q     Q    Q       E   E   E  E   Q     E    T   T   T   S  
-------12----10----8----|--7---8---L-------------------------------|
-------12----10----8----|--8--10---L--8--10-----Lh--12p-10h-12p-10-|
------------------------|-------------7---9------------------------|
------------------------|------------------------------------------|
------------------------|------------------------------------------|
------------------------|------------------------------------------|


  Q     Q     Q    E   E      E  E   E   E   H           Q     Q     Q    Q     
-------12----10----8--10--|---L--8--12----------------|-------12----10----8----|
-------12----10----8--10--|---L--8--12--10---L--------|-------12----10----8----|
--------------------------|--------------9---L--------|------------------------|
--------------------------|---------------------------|------------------------|
--------------------------|---------------------------|------------------------|
--------------------------|---------------------------|------------------------|


                            |---3---|                                  
  E   E   E  E   Q     E    T   T   T   S    Q     Q    Q    E     E   
--7---8---L-------------------------------|-------------8----L--8g12--|
--8--10---L--8--10-----Lh--12p-10h-12p-10-|-------10----8----L--8g12--|
-------------7---9------------------------|--------9------------------|
------------------------------------------|---------------------------|
------------------------------------------|---------------------------|
------------------------------------------|---------------------------|


                                        |--3--|           
   E      E  H        Q        Q    E.  T  T  T H         
---L--12g10--8--------x/----|----------------------------|
---L--12g10--8--------x/----|--8----8---6h-8p-6-L--------|
----------------------x/----|----------------------------|
----------------------x/----|----------------------------|
----------------------------|----------------------------|
----------------------------|----------------------------|


                                   |--3--|                                   
  Q.     S S Q    Q       Q    E.  T  T  T H           Q.     S S Q    Q     
-----------------------|----------------------------|-----------------------|
--6------L-8-5---------|--8----8---6h-8p-6-L--------|--6------L-8-5---------|
------------------7----|----------------------------|------------------7----|
-----------------------|----------------------------|-----------------------|
-----------------------|----------------------------|-----------------------|
-----------------------|----------------------------|-----------------------|


           |--3--|  |--3--|      |--3--|  |--3--|               
  Q    S S T  T  T  T  T  T S  S T  T  T  T  T  T  S S  T   S.  
--3----L-5-3h-5p-3h-5p-3h-5-3h-5-3h-5p-3h-5p-3h-5p-3-5-(1)h-3--|
---------------------------------------------------------------|
---------------------------------------------------------------|
---------------------------------------------------------------|
---------------------------------------------------------------|
---------------------------------------------------------------|


              |--3--|                                                     
  Q.     S E  E  E  E  S S S    W                   Q    E   E  H         
--1------L-1--1--1--0--3-1-0-|-------------------|-----------------------|
-----------------------------|--3----------------|--L----3s--6--L--------|
-----------------------------|-------------------|-----------------------|
-----------------------------|-------------------|-----------------------|
-----------------------------|-------------------|-----------------------|
-----------------------------|-------------------|-----------------------|


          |--3--|                                                 
  Q    E  T  T  T S  E  E  Q       E   E  Q    E     T  T S Q     
--3----L--3h-5p-3-3h-5--3--L----|--5s--8--L----Ls--(10)----------|
--------------------------------|--------------------------------|
--------------------------------|--------------------------------|
--------------------------------|--------------------------------|
--------------------------------|--------------------------------|
--------------------------------|--------------------------------|


  Q.     S S E  S E  S E     E  E  E  E  E  E  Q     
---------3-0-3--0-3--0-3--|--5--3--0----------------|
--------------------------|-----------3--L--1--L----|
--------------------------|-------------------------|
--------------------------|-------------------------|
--------------------------|-------------------------|
--------------------------|-------------------------|


                        |--3--|                          |---3---|          
  E  S S E  S E  S E  S T  T  T  S S    E  E  E  E   E   T   T   T  S Q     
-----3-0-3--0-3--0-3--L-3h-5p-3p-0-3-|--5--3--5--8--10--10h-12p-10--L-8----|
-------------------------------------|-------------------------------------|
-------------------------------------|-------------------------------------|
-------------------------------------|-------------------------------------|
-------------------------------------|-------------------------------------|
-------------------------------------|-------------------------------------|


                        |--3--|                                    
  E  S S E  S E  S E  S T  T  T  S S    E  E    E  E  E  E  E  E   
-----3-0-3--0-3--0-3--L-3h-5p-3p-0-3-|--5--3----------------------|
-------------------------------------|--------3g5--3--L--5--3-----|
-------------------------------------|-------------------------5--|
-------------------------------------|----------------------------|
-------------------------------------|----------------------------|
-------------------------------------|----------------------------|


                        |--3--|               |--3--|   |---3--|   |---3--|   
  E  S S E  S E  S E  S T  T  T S S    E  S S E  E  E   E  E   E   E   E  E   
-----3-0-3--0-3--0-3--L-3h-5p-3-0-3-|--5--3-5-8--5--8--10--8--10--12--10--8--|
------------------------------------|----------------------------------------|
------------------------------------|----------------------------------------|
------------------------------------|----------------------------------------|
------------------------------------|----------------------------------------|
------------------------------------|----------------------------------------|


             |--3-| |--3-|  |--3-| |--3-|            
   S S  S S  S S  S S  S S  S S  S S  S S  S S  S S  
--10-8-10-8-12-8-10-8-12-8-10-8-12-8-10-8-12-8-10-8-|
----------------------------------------------------|
----------------------------------------------------|
----------------------------------------------------|
----------------------------------------------------|
----------------------------------------------------|


  |--3--|  |--3--|  3  3        3              |--3--|  3  3    3             
  E  E  E  E  E  E  E  E  S. S. E  T T    Q    T  T  T  T  T  S T S H         
--7--8--5--7--3--5--0--3-----0---------|-------------------------------------|
--------------------------3-----3--L-1-|--L----1h-3p-1h-3p-1h-3-1-L-L--------|
---------------------------------------|-------------------------------------|
---------------------------------------|-------------------------------------|
---------------------------------------|-------------------------------------|
---------------------------------------|-------------------------------------|


                       |--3--|                         
  Q.     S S E  E  E.  T  T  T     Q    Q    H         
---------3-5-7--5--3---3h-5p-3h-|--0------------------|
--------------------------------|---------------------|
--------------------------------|---------------------|
--------------------------------|---------------------|
--------------------------------|---------------------|
--------------------------------|---------------------|


                                     |--3--|                
  Q    E  S S E  E  E  E     Q    E  T  T  T S  E  E  Q     
----------0-3----0--------|--3----L--3h-5p-3-3h-5--3--L----|
--------------3-----1--3--|--------------------------------|
--------------------------|--------------------------------|
--------------------------|--------------------------------|
--------------------------|--------------------------------|
--------------------------|--------------------------------|


                               |--3--|                                        
  Q.     E  E  E  E  E     E.  T  T  T Q    Q    Q       Q    Q    Q    Q     
---------5--8--7--5-----|-----------------------------|----------------------|
---------------------8--|--5---3h-5p-3-L----1----3----|--1----0---------0----|
------------------------|-----------------------------|------------2---------|
------------------------|-----------------------------|----------------------|
------------------------|-----------------------------|----------------------|
------------------------|-----------------------------|----------------------|


  |----3----|    3    3    3  3                                  
  Q    Q    Q    Q    Q    T  T  T  S  T    Q    Q    H          
-----------------------------------------|---------------------||
--1----0---------------------------------|---------------------||
------------2----1----0----0h-2p-0h-2p-0-|--L------------------||
-----------------------------------------|-------0----2--------||
-----------------------------------------|---------------------||
-----------------------------------------|---------------------||




Duration Legend
---------------
W - whole
H - half
Q - quarter
E - 8th
S - 16th
T - 32nd
X - 64th
. - note dotted
|-n-|  - n-tuplets


Tablature Legend
----------------
L - tied note
x - dead note
g - grace note
S - shift slide
s - legato slide
/ -  slide into from below or out of upwards
\ -  slide into from above or out of downwards
^ - brush up
v - brush down

=====================================================================


A Place We Should Return To (Invincible Version)                 
~White Melodies of Final Fantasy Tactics Advance~
Composed by:
Hitoshi Sakimoto, Nobuo Uematsu, Kaori Ohkoshi, Ayako Saso
Arranged by:
Yo Yamazaki, Akira Sasaki, Satoshi Henmi
Tabbed by: Justin Lincoln

Guitar 2



     E  E  E  E  E  E  E  E     E  E  E  E  E  E  E    E   
E||--3-----3-----1--------0--|----------------------------|
B||--------------------3-----|--6-----5-------------------|
G||-----0-----0-----0--------|-----5-----7-----0----------|
D||--------------------------|--------------3-----2-------|
A||--1-----------0-----------|-----------------------3g5--|
E||--------------------------|--4-----------3-------------|


  E  E  E  E  E  E  E  E     E  E  E  E  E  E  E  E   
--3-----3-----1--------0--|--------------------------|
--------------------3-----|--6-----5-----------------|
-----0-----0-----0--------|-----5-----7-----0--------|
--------------------------|--------------3-----2--0--|
--------------1-----------|--------------------------|
--0-----------------------|--4-----------3-----------|


  E  S  S E  E  Q    Q       W                   E  S  S E  E  Q    Q     
--------------------------|-------------------|--------------------------|
----------------0---------|--1----------------|----------------0---------|
----------0----------0----|--0----------------|----------0----------0----|
-----0h-2----2------------|--3----------------|-----0h-2----2------------|
--3-----------------------|-------------------|--3-----------------------|
--------------------------|-------------------|--------------------------|


  H        H           E  S  S E  E  Q    Q       W                 
--------------------|--------------------------|-------------------|
--1--------3--------|----------------0---------|--1----------------|
--0--------0--------|----------0----------0----|--0----------------|
--3--------5--------|-----0h-2----2------------|--3----------------|
--------------------|--3-----------------------|-------------------|
--------------------|--------------------------|-------------------|


  E  S  S E  E  Q    Q       H        H           E  E  E  E  E  E  E  E   
--------------------------|--------------------|--------------------------|
----------------0---------|--1--------3--------|--1-----1-----0-----3-----|
----------0----------0----|--0--------0--------|-----------0-----0-----0--|
-----0h-2----2------------|--3--------5--------|-----3--------------------|
--3-----------------------|--------------------|--------------------------|
--------------------------|--------------------|--1-----------3-----------|


  E  E  E  E  E  E  E  E     E  E  E  E  E  E  E  E   
--------0-----------0-----|--------------------------|
--3--------3--1--------1--|--L-----1-----0-----3-----|
--0-----------2-----------|-----------0-----0-----0--|
-----2-----------2--------|-----3--------------------|
--------------0-----------|--------------------------|
--0-----------------------|--1-----------3-----------|


  E  E  E  E  E  E  E  E     E  E  E  E  E  E  E  E   
--0-----------------0-----|--------------------------|
-----1--3-----1--------1--|--L-----1-----0-----3-----|
-----------0--------------|-----------0-----0-----0--|
-----------------2--------|-----3--------------------|
--3-----2-----0-----------|--------------------------|
--------------------------|--1-----------3-----------|


                             ^                                              
  E  E  E  E  E  E  E  E     E  E  E  E  Q    Q       E  S  S E  S  S Q     
--------0-----------0-----|------------------------|-----------------------|
--3--------3--1--------1--|--1-----1-----1----0----|-------------0h-1-L----|
-----0--------------------|--0-----------0---------|----------0------------|
-----------------2--------|--3--3-----3------------|-----0h-2--------------|
--------------0-----------|------------------------|--3--------------------|
--0-----------------------|--1-----------3---------|-----------------------|


  E  E  E  E  E  E  E  E     E  E  E  E  E  E  E    E   
--3-----3-----1--------0--|----------------------------|
--------------------3-----|--6-----5-------------------|
-----0-----0-----0--------|-----5-----7-----0----------|
--------------------------|--------------3-----2-------|
--1-----------0-----------|-----------------------3g5--|
--------------------------|--4-----------3-------------|


  E  E  E  E  E  E  E  E     E  E  E  E  E  E  E  E   
--3-----3-----1--------0--|--------------------------|
--------------------3-----|--6-----5-----------------|
-----0-----0-----0--------|-----5-----7-----0--------|
--------------------------|--------------3-----2--0--|
--------------1-----------|--------------------------|
--0-----------------------|--4-----------3-----------|


                                    ^                                       
  E  S  S E  E  Q    Q       Q.     E  H           E  S  S E  E  Q    Q     
--------------------------|---------0--L--------|--------------------------|
----------------0---------|--1------1--L--------|----------------0---------|
----------0----------0----|--0------0--L--------|----------0----------0----|
-----0h-2----2------------|--3------3--L--------|-----0h-2----2------------|
--3-----------------------|---------------------|--3-----------------------|
--------------------------|---------------------|--------------------------|


                                                         ^            
  H        H           E  S  S E  E  Q    Q       Q.     E  H         
--------------------|--------------------------|---------0--L--------|
--1--------3--------|----------------0---------|--1------1--L--------|
--0--------0--------|----------0----------0----|--0------0--L--------|
--3--------5--------|-----0h-2----2------------|--3------3--L--------|
--------------------|--3-----------------------|---------------------|
--------------------|--------------------------|---------------------|


  E  S  S E  E  Q    Q       H        H           E  E  E  E  E  E  E  E   
--------------------------|--------------------|--------------------------|
----------------0---------|--1--------3--------|--1-----1-----0-----3-----|
----------0----------0----|--0--------0--------|-----------0-----0-----0--|
-----0h-2----2------------|--3-----------------|-----3--------------------|
--3-----------------------|--------------------|--------------------------|
--------------------------|--------------------|--1-----------3-----------|


  E  E  E  E  E  E  E  E     E  E  E  E  E  E  E  E   
--------0-----------0-----|--------------------------|
--3--------3--1--------1--|--L-----1-----0-----3-----|
--0-----------2-----------|-----------0-----0-----0--|
--2--2--------2--2--------|-----3--------------------|
--------------0-----------|--------------------------|
--0-----------------------|--1-----------3-----------|


  E  E  E  E  E  E  E  E     E  E  E  E  E  E  E  E   
--0-----------------0-----|--------------------------|
-----1--3-----1--------1--|--L-----1-----0-----3-----|
-----------0--------------|-----------0-----0-----0--|
-----------------2--------|-----3--------------------|
--3-----2-----0-----------|--------------------------|
--------------------------|--1-----------3-----------|


                             ^                      
  E  E  E  E  E  E  E  E     E  E  E  E  Q    Q     
--------0-----------0-----|------------------------|
--3--------3--1--------1--|--1-----1-----1----0----|
-----0--------------------|--0-----------0---------|
-----------------2--------|--3--3-----3------------|
--------------0-----------|------------------------|
--0-----------------------|--1-----------3---------|


  E  S  S E  S  S Q    Q        E  E  E  E  E  E  E  E   
-----------------------x/----|--3-----3-----1--------0--|
-------------0h-1-L----x/----|--------------------3-----|
----------0------------x/----|-----0-----0-----0--------|
-----0h-2--------------x/----|--------------------------|
--3--------------------------|--1-----------0-----------|
-----------------------------|--------------------------|


  E  E  E  E  E  E  E    E     E  E  E  E  E  E  E  E   
----------------------------|--3-----3-----1--------0--|
--6-----5-------------------|--------------------3-----|
-----5-----7-----0----------|-----0-----0-----0--------|
--------------3-----2-------|--------------------------|
-----------------------3g5--|--------------1-----------|
--4-----------3-------------|--0-----------------------|


  E  E  E  E  E  E  E  E     W                   W                 
--------------------------|-------------------|-------------------|
--6-----5-----------------|--1----------------|--L----------------|
-----5-----7-----0--------|--0----------------|--L----------------|
--------------3-----2--0--|--3----------------|--L----------------|
--------------------------|-------------------|-------------------|
--4-----------3-----------|--1----------------|--L----------------|


  E  E  E  E  E  E  S S E     E  E  E  E  E  E  S S E   
---------------------------|---------------------------|
--------1--------1------1--|--------1--------1------1--|
-----0--------0-------0----|-----0--------0-------0----|
--3--------3--------3------|--3--------3--------3------|
---------------------------|---------------------------|
---------------------------|---------------------------|


  E  E  E  E  E  E  S S E     E  E  E  E  E  E    E  E   
---------------------------|----------------------------|
--------1--------1------1--|--------1--------1----------|
-----0--------0-------0----|-----0--------0-------------|
--3--------3--------3------|--3--------3----------------|
---------------------------|--------------------2g3--2--|
---------------------------|----------------------------|


     |-3-|                                                 
  E  S S S E  E  E  E  E  E     E  E    E  E  E  E  E  E   
-----------0-----------0-----|----------------------------|
-----1-3-1-1--1--L--------1--|--0-----3g5--3--L-----1-----|
-----2--------2--L-----------|--0-------0--0--L-----------|
--------------------3--------|-----0-------------2--------|
--0--------------------------|-------------3--L--------2--|
--------------1--L-----------|--3-------------------------|


     |-3-|                                                   
  E  S S S E  E  E  E  E  E     E  E    E  E  E  S  S S E.   
-----------0-----------0-----|------------------------------|
-----1-3-1-1--1--L--------1--|--0-----3g5--3--L---------3---|
-----2--------2--L-----------|--0-------0--0--L-------0-----|
--------------------3--------|-----0-------------2S-4-------|
--0--------------------------|-------------0--L-------------|
--------------1--L-----------|--3---------------------------|


     |-3-|                                                 
  E  S S S E  E  E  E  E  E     E  E    E  E  E  E  E  E   
-----------0-----------0-----|----------------------------|
-----1-3-1-1--1--L--------1--|--0-----3g5--3--L-----1-----|
-----2--------2--L-----------|--0-------0--0--L-----------|
--------------------3--------|-----0-------------2--------|
--0--------------------------|-------------3--L--------2--|
--------------1--L-----------|--3-------------------------|


     |-3-|                                               
  E  S S S E  E  E  E  E  E     E  E  E  E  E  E  E  E   
-----------0-----------0-----|--------------------------|
-----1-3-1-1--1--L--------1--|--1-----1-----1-----1-----|
-----2--------2--L-----------|--0-----0-----0-----0-----|
--------------------3--------|-----0-----0-----0-----0--|
--0--------------------------|--------------------------|
--------------1--L-----------|--3-----------------------|


  E  E  E  E  H           W                   E  S  S E  E  Q    Q     
--1-----1-----1--------|-------------------|--------------------------|
--3-----3-----3--------|-------------------|----------------0---------|
-----0-----0--0--------|-------------------|----------0----------0----|
-----------------------|-------------------|-----0h-2----2------------|
-----------------------|-------------------|--3-----------------------|
--3-----------3--------|-------------------|--------------------------|


  W                   E  S  S E  E  Q    Q       H        H         
-------------------|--------------------------|--------------------|
--1----------------|----------------0---------|--1--------3--------|
--0----------------|----------0----------0----|--0--------0--------|
--3----------------|-----0h-2----2------------|--3--------5--------|
-------------------|--3-----------------------|--------------------|
-------------------|--------------------------|--------------------|


  E  S  S E  E  Q    Q       W                   E  S  S E  E  Q    Q     
--------------------------|-------------------|--------------------------|
----------------0---------|--1----------------|----------------0---------|
----------0----------0----|--0----------------|----------0----------0----|
-----0h-2----2------------|--3----------------|-----0h-2----2------------|
--3-----------------------|-------------------|--3-----------------------|
--------------------------|-------------------|--------------------------|


                                                     ^                  
  H        H           E  S  S E  S S E  E  E  E     W                  
--------------------|-----------------0-----------|--0----------------||
--1--------0--------|-------------0-1----1--------|--1----------------||
--0--------0--------|----------0------------0-----|--0----------------||
--3-----------------|-----0h-2-----------------2--|--2----------------||
--------------------|--3--------------------------|--3----------------||
-----------3--------|-----------------------------|-------------------||




Duration Legend
---------------
W - whole
H - half
Q - quarter
E - 8th
S - 16th
T - 32nd
X - 64th
. - note dotted
|-n-|  - n-tuplets


Tablature Legend
----------------
L - tied note
x - dead note
g - grace note
S - shift slide
s - legato slide
/ -  slide into from below or out of upwards
\ -  slide into from above or out of downwards
^ - brush up
v - brush down
Login or Register to remove this ad.

10 comments on A Place We Should Return To (Invincible Version)

Got as close as I could get

Got as close as I could get with those weird flute trills. Listen to the mp3 to hear how they're played.

Give this one a go guys, I

Give this one a go guys, I know duets suck and all but the guitar part of the tab is the full guitar part played in the mp3. Just dl the mp3 and try it out, it's actually pretty fun.

I skipped over it at first

5

I skipped over it at first cause I was unfamiliar with the song, but it's a really nice song. Kinda neat how the 'background' guitar is louder than the melody. Fun to play. You should do some more White Melodies arrangements, or maybe we can have a site project from that album or something.

I agree with archard XD The

5

I agree with archard XD

The White Melodies Album is so awesome, all the musics are great, specially mewt, beyond the wasteland (bandneon version) and amber valley. How about a tab about those, huh?

Grace Note?

Hey, y'all. This sounds awesome, but could someone explain the term "grace note" to me? I've never run across it before.

B

It's a note played quickly

It's a note played quickly before the main note.

CC

Thanks, Kabukibear. I appreciate your tabs and your time. =)

B

Can't believe I never played

Can't believe I never played through this, thanks Kab!

Okay, so...

5

I listened to the MP3... and I noticed that the track is listed as #10. Do you have an album out somewhere that I can hear the rest of the tracks? It's wonderful work.

I don't know a place to

I don't know a place to download if that's what you are asking, but you can find most game soundtracks on youtube

https://www.youtube.com/playlist?list=PL6B10E6FD9D470513