Ads

Sad Little Bird (Full Metal Panic!) Guitar Tab

Submitted: Jun 15, 2017 by Coolbreeze

0
Download | Listen
Game: Full Metal Panic!
Composer(s): Toshihiko Sahashi
Style: 2 or more instruments, Transcription

AutoScroll: Slow | Medium | Fast
				  Sad Little Bird
				~Full Metal Panic!~

Music by Toshihiko Sahashi
Performed by Hiroshi Kobori
Tabbed by Coolbreeze
Tempo = 60

Standard Tuning


Guitar 1

     W                   E.  S H.              Q    S E  S E  Q.      
E||-------------------|------7-L------------|--3----L-0----0--L------|
B||--5----------------|------5-L------------|--5----L----3-----------|
G||-------------------|------4-L------------|------------------------|
D||-------------------|---------------------|------------------------|
A||-------------------|---------------------|------------------------|
E||-------------------|---------------------|------------------------|


  E.  E  H        S S  S    Q.     S T  T  Q.     S.  T  
------7--L--------7-8-10-|--3--------8------------------|
------5--L---------------|--5----------12-10---------10-|
------4--L---------------|--5---------------------------|
-------------------------|------------------------------|
-------------------------|------------------------------|
-------------------------|------------------------------|


  S  E   E  S  E   H           T  T H        E.  S S E   
--0---------0---------------|---------------------------|
--------10------------------|----10-L------------5-3-1--|
----12--------12---L--------|-------9------------5-4-2--|
----------------------------|---------------------------|
----------------------------|---------------------------|
----------------------------|---------------------------|


  E  S H        E  S S S    S Q    T T T T T T H         
-----------------------7-|-------------0----------------|
--3----5-------------5---|--8-L------3-----3-L-L--------|
--4----5-----------4-----|---------------5--------------|
-----5-------------------|------------------------------|
-------------------------|------------------------------|
-------------------------|------------------------------|


  S  E   E  S  S  H        S    E  S S E  S S Q    S S E   
--0---------0----------------|--8------7-----------0------|
--------10-------------------|----------------8------3----|
----12--------12--L--------9-|-----9-7----7-5----------5--|
-----------------------------|----------------------------|
-----------------------------|----------------------------|
-----------------------------|----------------------------|


  H.           E   T  T  T  T     W                 
------------------------------|--------------------|
--3---------------12-13-12----|--------------------|
---------------------------12-|---L----------------|
---------------------------12-|---L----------------|
------------------------------|--------------------|
------------------------------|--------------------|


   S  E   E   S  E   H           Q    Q    Q    Q     
------------------------------|--0---------0---------|
-----13--13-----13---L--------|-----------------6----|
--14---------14---------------|-------7--------------|
------------------------------|----------------------|
------------------------------|----------------------|
------------------------------|----------------------|


   S  E   E   S  E   H           Q    Q    Q    Q       H.           Q     
------------------------------|-------5--------------|--------------------|
-----12--12-----12---L--------|-------5----3----5----|--5-----------------|
--12---------12---------------|-------5----4----5----|--------------------|
------------------------------|----------------------|--------------------|
------------------------------|----------------------|--------------------|
------------------------------|----------------------|--------------------|


  T S E   S. H        S S S    H.           E   S S     W                 
----7-8--10--L----------8-7-|--7--------------------|--------------------|
----------------------------|------------------10-8-|--10----------------|
--9-------------------9---7-|--7--------------------|--------------------|
----------------------------|-----------------------|--------------------|
----------------------------|-----------------------|--------------------|
----------------------------|-----------------------|--------------------|


                       ^                                             
  W                    Q     Q    Q     Q        H.            Q     
-------------------|---8----------8----12----|--10------------------|
-------------------|--10----10---------------|----------------------|
-------------------|---9---------------------|----------------12----|
-------------------|-------------------------|----------------------|
-------------------|-------------------------|----------------------|
-------------------|-------------------------|----------------------|


   H.            Q        W                    H.            Q     
--15------------17----|--------------------|----------------17----|
----------------------|--17----------------|---L------------------|
----------------------|--------------------|----------------------|
----------------------|--------------------|----------------------|
----------------------|--------------------|----------------------|
----------------------|--------------------|----------------------|


   W                    W                  
--------------------|--------------------||
--17----------------|---L----------------||
--------------------|--------------------||
--------------------|--------------------||
--------------------|--------------------||
--------------------|--------------------||




Guitar 2

     W                   S S E  H.              Q.     S S H         
E||-------------------|----0-0---------------|----------------------|
B||-------------------|------0---------------|-----------0-L--------|
G||-------------------|--2-------------------|--2--------0-L--------|
D||-------------------|----2-----------------|--3--------2-L--------|
A||-------------------|--0-------------------|--3-------------------|
E||-------------------|----------------------|--1--------0-L--------|


                         ^                      ^                 
  S S E  H.              Q.     S S H           W                 
----0-0---------------|----------------------|-------------------|
------0---------------|----------------------|--1----------------|
--2-------------------|--2--------0-L--------|--2----------------|
----2-----------------|--3--------0-L--------|--3----------------|
--0-------------------|--3-------------------|-------------------|
----------------------|--1-------------------|-------------------|


                                                              ^                 
  W                   W                   W                   W                 
-------------------|-------------------|-------------------|-------------------|
-------------------|-------------------|-------------------|--1----------------|
-------------------|--0----------------|-------------------|--2----------------|
-------------------|--2----------------|-------------------|--3----------------|
-------------------|--0----------------|-------------------|-------------------|
-------------------|-------------------|-------------------|-------------------|


                      ^                                       ^                 
  W                   W                   W                   W                 
-------------------|-------------------|-------------------|-------------------|
-------------------|--0----------------|-------------------|--1----------------|
-------------------|--0----------------|-------------------|--2----------------|
-------------------|--2----------------|-------------------|--3----------------|
-------------------|--2----------------|-------------------|-------------------|
-------------------|-------------------|-------------------|-------------------|


                      ^                                       ^                 
  W                   W                   W                   W                 
-------------------|-------------------|-------------------|--0----------------|
-------------------|--0----------------|-------------------|--0----------------|
-------------------|--0----------------|--0----------------|--1----------------|
-------------------|--2----------------|--2----------------|--2----------------|
-------------------|--2----------------|--0----------------|-------------------|
-------------------|-------------------|-------------------|-------------------|


  H.           E.  S    Q    Q    H           Q    H.            
---------------------|---------------------|--------------------|
-------------------3-|--3---------1--------|--0----1------------|
---------------------|---------------------|--2----L------------|
---------------------|-------2-------------|--------------------|
---------------------|--0------------------|--------------------|
---------------------|---------------------|--------------------|


  S S S S S S S S H           W                   S S S S H.            
------3-5---3-5---0--------|-------------------|----0-----3------------|
--1-------1-----1----------|-------------------|------0-1--------------|
------0-2---0-2------------|-------------------|--2--------------------|
----3----------------------|-------------------|----2------------------|
----3-----3----------------|-------------------|--0--------------------|
--1------------------------|-------------------|-----------------------|


                                                  ^                  
  S S S S H.              S S S S H.              Q    H.            
----0-----0------------|------3-5-0------------|--------------------|
------3-0--------------|----1------------------|--1----0------------|
--0--------------------|-----------------------|--0-----------------|
----2------------------|--3--------------------|--0-----------------|
-----------------------|----3------------------|--------------------|
--3--------------------|--1--------------------|--------------------|


          ^                                  
  S S S S H.              W                  
----0-3---3------------|--L----------------||
--------0-0------------|--L----------------||
--2---0---5------------|--L----------------||
----2------------------|-------------------||
--0--------------------|-------------------||
-----------------------|-------------------||
Login or Register to remove this ad.