Ads

Asagohan no Uta (From Up On Poppy Hill) Guitar Tab

Submitted: Aug 18, 2014 by Basisti94

5
Average: 5 (1 vote)
Download | Listen
Game: From Up On Poppy Hill
Composer(s): Satoshi Takebe, Aoi Teshima
Style: Arrangement, Fingerstyle

This song is also called Breakfast Song

AutoScroll: Slow | Medium | Fast
                    Asagohan no Uta


From Up on Poppy Hill / Kokuriko-zaka Kara
Aoi Teshima
Guitar arrangement by Basisti94 (Miro Laaksonen)
15.8.2014

---------------------------------
The opening song from From Up On Poppy Hill.
Capo on third fret might seem bit weird when the song is mostly in
C major but it actually turned out to be much easier this way.
---------------------------------


Capo 3
Tempo ~ 126 

     Q    E  E  E  E  E  E     E  E  E  E  E  E  E  E   
E||-------0-----0-----0-----|--0--0-----------0--------|
B||-------------------0-----|--------------4-----------|
G||-------1-----2-----------|-----------2-----------1--|
D||-------------------------|--------2-----------2-----|
A||-------------------------|--0-----------0-----------|
E||-------0-----2-----4-----|--------------------------|


                                                     |----3----|              
  Q    E  E  E  E  Q       E  E  E  E  E  E  Q       Q    Q    Q    H         
--0----0-----2--0-------|-----0-----------0-------|--0-----------------------|
------------------------|--------------4----------|-------1------------------|
----------1-------------|-----2-----2-------------|--1---------1-------------|
-------0-----------0----|--------2-----------2----|-----------------2--------|
------------------------|--0-----------0----------|--------------------------|
--0----------0----------|-------------------------|--0-----------------------|


  E  E  E  E  E  E  E  E     E  E  E  E  Q    Q       E  E  E  E  Q    E  E   
--------0--0--2--2--0--0--|--------0--0--2----0----|-----5--5--5--4-------2--|
--2--2--------------------|--1--1------------------|-------------------------|
--------------------------|------------------------|-------------------------|
--------2-----------2-----|------------------------|--------2----------2-----|
--0-----------0-----------|--------3----------3----|--0-----------0----------|
--------------------------|--0-----------0---------|-------------------------|


  Q    E  E  Q    Q       E  E  E  E  E  E  E  E     E  E  E  E  E  E  E  E   
-----------------------|--------------0--0--------|--1--1--0--0--------------|
--5----2--2------------|--------3--3--------3--3--|--------------3--3--0--0--|
----------3------------|--4--4--------------------|--------2-----------2-----|
-------2---------------|--------4-----------4-----|--0-----------0-----------|
-------4----------4----|--2-----------2-----------|--------------------------|
--2----------2---------|--------------------------|--------------------------|


  E  Q    E  Q    E  E     E  E  E  E  Q    Q       E  E  E  E  E  E  E  E   
------------------------|------------------------|--------0--0--2--2--0--0--|
-----2----2-------------|--2--1--0---------------|--2--2--------------------|
---------------------2--|-----------2------------|--------------------------|
-----2-------4----------|-----------2--L----2----|--------2-----------2-----|
-----0-------4----4-----|-----------0--L---------|--0-----------0-----------|
--0----------2----2-----|--0---------------------|--------------------------|


  E  E  E  E  Q    Q       E  E  E  E  E  E  E  E     Q    E  E  E  E  Q     
--------0--0--2----0----|-----5--5--5--4--4--4--2--|------------------------|
--1--1------------------|--------------------------|--5----2--2-------------|
------------------------|--------------------------|----------3--L----------|
------------------------|--------2-----------2-----|------------------------|
--------3----------3----|--0-----------0-----------|-------4--------4-------|
--0-----------0---------|--------------------------|--2----------------2----|


  E  E  E  E  E  E  E  E     E  E  E  E  E  E  E  E     E  E  E  E  Q    E  E   
--------------0--0--------|--1--1--0--0--------------|-------------------------|
--------3--3--------3--3--|--------------3--3--0--0--|-----2--2--2-------------|
--4--4--------------------|--------2-----------2-----|----------------------2--|
--------4-----------4-----|--0-----------0-----------|-----2--------4----------|
--2-----------2-----------|--------------------------|-----0--------4----------|
--------------------------|--------------------------|--0-----------2----2-----|


  E  E  E  E  E  E  Q       Q    Q    Q    Q       E  E  E  E  Q    Q     
-------------------------|----------------------|------------------------|
--2--1--0----------------|------------0----1----|--1--0------------------|
-----------2--L----------|-------2---------2----|--------2---------------|
-----------2--L--2-------|--4----4--------------|--0--------4-------4----|
-----------0--L-----0----|--5---------0---------|--------0-----0---------|
--0----------------------|----------------------|------------------------|


  E  E  E  E  Q    E  E     Q    E  E  Q    Q       E  E  E  E  E  E  E  E   
-----0--------0-------2--|-----------------------|--------------------------|
-----------4-------------|--1----0---------------|-----0--------0--0--------|
--------0----------0-----|----------2------------|-----------2--------------|
-------------------------|-----------------------|--------1--------------4--|
--0----------------------|--0----4-----2----0----|--2-----------------0-----|
--------------0----------|-----------------------|--------------2-----------|


  E  E  E  E  Q    Q       E  E  E  E  E  E  E  E     E  E  E  E  E  Q.      
------------------------|-----0--0--0--0--2-----0--|--4--4--3--2--L--0------|
--------0--0------------|--------------------------|------------------------|
--------------1---------|--------------------1-----|-----------------1------|
--4--4--1----------4----|--------------------------|-----------2--L--0------|
--2----------------2----|--------------2-----------|--------2---------------|
--------------2---------|--0-----4-----------------|--0--------------0------|


  Q    Q    Q    Q       E  E  E  E  Q    Q       Q    Q    Q    Q     
--5----5----7----5----|--4--3--4---------------|--2----2----3----2----|
----------------------|-----------2------------|----------------------|
----------------------|------------------------|----------------------|
-------2--------------|------------------------|-------2--------------|
--0--------------2----|--4----------------4----|------------4---------|
------------0---------|--------------4---------|--2--------------2----|


  E  E  E  E  Q    Q       E  E  E  E  E    E  Q     
--0--0------------------|-----------0---------------|
--------2--3------------|--0--2--3--------4g5-------|
------------------------|---------------------------|
--------0---------------|--0-----0--2----------2----|
--2----------------2----|--2------------------------|
--------------2---------|---------------------------|


  E  E  E  E  E      E  Q       E  E  E  E  E  E  E  E   
-----------0-----11g12--0----|--------------0--2-----0--|
--0--2--3--------------------|-----0--2--3--------------|
-----------------------------|--------------1-----1-----|
--0-----0--2-----------------|-----0--------2-----2-----|
--2--------------------------|-----2--------------------|
-----------------------------|--------------------------|


                                 |--3--|        |--3--|   
  E  E  E  E  Q    Q       E  E  E  E  E  E  E  E  E  E   
------------------------|--5--5--------5--4--4--------4--|
--3--2--0---------------|--------2--5--------------6-----|
-----------2--L---------|-----------------------6--------|
------------------------|--------2--------------6--------|
--2--------0--L---------|--0--------------4--------------|
-------------------0----|--------------------------------|


  E  E  E  E  Q    Q       E  E  E  E  Q    Q       E  E  E  E  Q    Q     
--2-----2---------------|------------------------|------------------------|
-----6-----2------------|-----0--------0---------|------------------------|
------------------------|-------------------2----|--1--0------------------|
--------2----------2----|--------1--4------------|--------4--2------------|
--------------4---------|--2----------------2----|--------------2---------|
--2---------------------|--------------2---------|--0----------------4----|


  E  E  Q    E  E  Q       E  E  E  E  Q    Q       E  E  E  E  E  E  E  E   
--5--5-------4--4-------|--2-----2---------------|--------------0-----------|
--5--5-------6--6-------|-----6-----2------------|--0--2--3--4--------2-----|
-------------------4----|------------------------|-----------------------2--|
--------2---------------|--------2----------2----|--------------0--2--------|
--0----------4----------|--------------4---------|--2-----2--------------0--|
------------------------|--2---------------------|--------------------0-----|


  Q    H.              E  E  E  E  E  E  E  E     E  E  E  E  Q    Q     
--------------------|--------0--0--2--2--0--0--|--------0--0--2----0----|
--------------------|--2--2--------------------|--1--1------------------|
--------------------|--------------------------|------------------------|
-------2------------|--------2-----------2-----|------------------------|
-------3------------|--0-----------0-----------|--------3----------3----|
-------0------------|--------------------------|--0-----------0---------|


  E  E  E  E  Q    E  E     Q    E  E  Q    Q       E  E  E  E  E  E  E  E   
-----5--5--5--4-------2--|-----------------------|--------------0--0--------|
-------------------------|--5----2--2------------|--------3--3--------3--3--|
-------------------------|----------3------------|--4--4--------------------|
--------2----------2-----|-------2----------2----|--------4-----------4-----|
--0-----------0----------|-------4----------4----|--2-----------2-----------|
-------------------------|--2----------2---------|--------------------------|


  E  E  E  E  E  E  E  E     E  Q    E  Q    E  E     E  E  E  E  Q    Q     
--1--1--0--0--------------|------------------------|------------------------|
--------------3--3--0--0--|-----2----2-------------|--2--1--0---------------|
--------2-----------2-----|---------------------2--|-----------2------------|
--0-----------0-----------|-----2-------4----------|-----------2--L----2----|
--------------------------|-----0-------4----4-----|-----------0--L---------|
--------------------------|--0----------2----2-----|--0---------------------|


  E  E  E  E  E  E  E  E     E  E  E  E  Q    Q       E  E  E  E  E  E  E  E   
--------0--0--2--2--0--0--|--------0--0--2----0----|-----5--5--5--4--4--4--2--|
--2--2--------------------|--1--1------------------|--------------------------|
--------------------------|------------------------|--------------------------|
--------2-----------2-----|------------------------|--------2-----------2-----|
--0-----------0-----------|--------3----------3----|--0-----------0-----------|
--------------------------|--0-----------0---------|--------------------------|


  E  E  E  E  E  E  Q       E  E  E  E  E  E  E  E     E  E  E  E  E  E  E  E   
-------------------------|--------------0--0--------|--1--1--0--0--------------|
--5--4--5--2-------------|--------3--3--------3--3--|--------------3--3--0--0--|
-----------3--L----------|--4--4--------------------|--------2-----------2-----|
-------------------------|--------4-----------4-----|--0-----------0-----------|
-----------------4-------|--2-----------2-----------|--------------------------|
--2-----------------2----|--------------------------|--------------------------|


  E  E  E  E  Q    E  E     E  E  E  E  E  E  Q       Q    Q    Q    Q     
-------------------------|-------------------------|----------------------|
-----2--2--2-------------|--2--1--0----------------|------------0----1----|
----------------------2--|-----------2--L----------|-------2---------2----|
-----2--------4----------|-----------2--L--2-------|--4----4--------------|
-----0--------4----------|-----------0--L-----0----|--5---------0---------|
--0-----------2----2-----|--0----------------------|----------------------|


  E  E  E  E  Q    Q       E  E  E  E  Q    E  E     Q    E  E  Q    Q     
------------------------|-----0--------0-------2--|-----------------------|
--1--0------------------|-----------4-------------|--1----0---------------|
--------2---------------|--------0----------0-----|----------2------------|
--0--------4-------4----|-------------------------|-----------------------|
--------0-----0---------|--0----------------------|--0----4-----2----0----|
------------------------|--------------0----------|-----------------------|


  E  E  E  E  E  E  E  E     E  E  E  E  Q    Q       E  E  E  E  E  E  E  E   
--------------------------|------------------------|-----0--0--0--0--2-----0--|
-----0--------0--0--------|--------0--0------------|--------------------------|
-----------2--------------|--------------1---------|--------------------1-----|
--------1--------------4--|--4--4--1---------------|--------------------------|
--2-----------------0-----|--2----------------2----|--------------2-----------|
--------------2-----------|--------------2---------|--0-----4-----------------|


  E  E  E  E  E  Q.        Q    Q    Q    Q       E  E  E  E  Q    Q     
--4--4--3--2--L--0------|--5----5----7----5----|--4--3--4---------------|
------------------------|----------------------|-----------2------------|
-----------------1------|----------------------|------------------------|
-----------2--L--0------|-------2--------------|------------------------|
--------2---------------|--0--------------2----|--4----------------4----|
--0--------------0------|------------0---------|--------------4---------|


  Q    Q    Q    Q       E  E  E  E  Q    Q       E  E  E  E  E    E  Q     
--2----2----3----2----|--0--0------------------|-----------0---------------|
----------------------|--------2--3------------|--0--2--3--------4g5-------|
----------------------|------------------------|---------------------------|
-------2--------------|--------0---------------|--0-----0--2----------2----|
------------4---------|--2----------------2----|--2------------------------|
--2--------------2----|--------------2---------|---------------------------|


  E  E  E  E  E    E  Q       E  E  E  E  E  E  E  E     E  E  E  E  Q    Q     
-----------0---------------|--------------0--2-----0--|------------------------|
--0--2--3--------4g5-------|-----0--2--3--------------|--3--2--0---------------|
---------------------------|--------------1-----1-----|-----------2--L---------|
--0-----0--2----------2----|-----0--------2-----2-----|--------2---------------|
--2------------------------|-----2--------------------|--2--------0--L---------|
---------------------------|--------------------------|-------------------0----|


  Q    Q    Q    Q       E  E  E  E  Q    Q       Q    Q    Q    Q     
--5----5----7----5----|--4--3--4---------------|--2----2----3----2----|
----------------------|-----------2------------|----------------------|
----------------------|------------------------|----------------------|
-------2--------------|------------------------|-------2--------------|
--0--------------2----|--4----------------4----|------------4---------|
------------0---------|--------------4---------|--2--------------2----|


  E  E  E  E  Q    Q       E  E  E  E  E      E  Q     
--0--0------------------|-----------0-----11g12--0----|
--------2--3------------|--0--2--3--------------------|
------------------------|-----------------------------|
--------0---------------|--0-----0--2-----------------|
--2----------------2----|--2--------------------------|
--------------2---------|-----------------------------|


  E  E  E  E  E      E  Q       E  E  E  E  E  E  E  E   
-----------0-----11g12--0----|--------------0--2-----0--|
--0--2--3--------------------|-----0--2--3--------------|
-----------------------------|--------------1-----1-----|
--0-----0--2-----------------|-----0--------2-----2-----|
--2--------------------------|-----2--------------------|
-----------------------------|--------------------------|


  E  E  E  E  Q    Q       E  E  Q    E  E  Q       E  E  E  E  Q    Q     
--9--8--7--5--L---------|--5--5-------4--4-------|--2-----2---------------|
------------------------|--5--5-------6--6-------|-----6-----2------------|
------------------------|-------------------4----|------------------------|
------------------------|--------2---------------|--------2----------2----|
-----------0------------|--0----------4----------|--------------4---------|
--0----------------0----|------------------------|--2---------------------|


  E  E  E  E  E  E  E  E     E  S S Q    Q    Q            
--------------0-----------|---------0--------------|-----||
--0--2--3--4--------2-----|-------2----------------|-----||
-----------------------2--|--L--2------------------|-----||
--------0--------2--------|------------------------|-----||
--2--------------------0--|--------------0---------|-----||
--------------0-----0-----|------------------------|-----||


Aoi Teshima <3


Duration Legend
---------------
W - whole
H - half
Q - quarter
E - 8th
S - 16th
T - 32nd
X - 64th
. - note dotted
|-n-|  - n-tuplets


Tablature Legend
----------------
L - tied note
x - dead note
g - grace note
(n) - ghost note
> - accentuded note
NH - natural harmonic
AH - artificial harmonic
TH - tapped harmonic
SH - semi harmonic
PH - pitch harmonic
h - hammer on
p - pull off
b - bend
S - shift slide
s - legato slide
/ -  slide into from below or out of upwards
\ -  slide into from above or out of downwards
~ - vibrato
W - wide vibrato
tr - trill
TP - tremolo picking
T - tapping
S - slap
P - pop
< - fade in
^ - brush up
v - brush down
Login or Register to remove this ad.