You're looking at an archived, read-only version of our old community forum. See our new community forum here.

Submiting a tab

luigikart64

Joined: Nov 24 2016

I submited a tab. it looked good until i decided to preview it. Then thenumbers and letters on the tab were all out of sequence. Why does this happen? Nothing appears to line up. Help!!

tab- banjo-kazooie (spiral mountain)

Section A

q q s e s e e q e. s e e e e e. s e e q e e
e|--3--3--3-3-5-3------|---------------------------|--------------------------|
B|--3--3--3-3-----3----|--1----1--3-1--------------|-------------0--1---0-----|
G|--4--4--4-4----------|-----------------0---0-----|--2---1-2--------------2--|
D|--3--3--3-3----------|---------------------------|--------2-----------------|
A|---------------------|--3---------3------------3-|--0-------------0---0-----|
E|---------------------|-------3-------------3-----|-----------------------4--|

you want to use HTML

quinndangle2

Joined: Nov 19 2014

you want to use HTML formatting to stop it reverting to that, use < pre > at the start and < / pre > at the end of your tab (no spaces)

for example;

e|--3--3--3-3-5-3------|---------------------------|--------------------------|
B|--3--3--3-3-----3----|--1----1--3-1--------------|-------------0--1---0-----|
G|--4--4--4-4----------|-----------------0---0-----|--2---1-2--------------2--|
D|--3--3--3-3----------|---------------------------|--------2-----------------|
A|---------------------|--3---------3------------3-|--0-------------0---0-----|
E|---------------------|-------3-------------3-----|-----------------------4--|
----------

=(8^(|)=(8^(|)=(8^(|)
facebook: /brent.quinn5

Re: you want to use HTML

luigikart64

Joined: Nov 24 2016

Awesome, Thank you!

----------

Luis V
instagram - luigikart64
soundcloud - https://soundcloud.com/luis-alberto-villalobos