You're looking at an archived, read-only version of our old community forum. See our new community forum here.

Some help with an original work.

atukomanga

Shiny/Glowy object collector

Location: Orlando, Florida, United States of America

Joined: Jun 13 2008

I've been working on this song for a bit and I recently bounced the tabs out so I could attempt to play them. However, they sucked, and I suck at cleaning them up (trust me, I've been trying) Could someone help me with the conversion to actually playable? Here's the craptacular version.

Passing Suns
Passingsuns

Main lead guitar

Intro

E ------|


First Phrase Chorus

E -2-4-|-5------4-5-|-7-------5--7--|-9---10-------9-7-|-5-----2-4-|-5------4--5-|--7---5---4----0-0----|-2-2-------------|


E -2-4-|-5------4-5-|-7--------5-7-|-17---------12-10-|-9------9-7-|-5------4--5--|-12--10--9----14-12---|-14-14--------


Begin Breakdown

E |------|------|------|------|------|------|------|------|


Breakdown Solo

E ---9-7-5-4-5-4-0-----|-2-------|---9-7-5-4-5-0-12------|-10--9----7-5-|---14-9-5-4-5-7-0----|-2-------|
B -------------------------|----------|----------------------------|------------------|--------------------------|---------|
G -------------------------|----------|----------------------------|------------------|-------------------------|----------|
D -4----------------------|-----------|-4-------------------------|------------------|-4-----------------------|---------|


E ---9-7-5-4-5-4-0-|-2-4-5-9-14-16-17-19-|-21------17------14------|-9-5-4-2----------|--------------|-4----------|
B ---------------------|-----------------------------|----------------------------|------------2-0----|-0-----------| -------------|
G ---------------------|----------------------------|-----------------------------|------------------2-|-------------|--------------|
D -4-------------------|----------------------------|-----------------------------|--------------------|-------------|--------------|


E -9------5-----2------|-9-7-5-4-5-17-16-|-12----------------
B -----------------------|----------------------|--------------------
G------------------------|----------------------|--------------------
D -----------------------|----------------------|--------------------


Heavenly Piano

E |------|


Back To Insane Chorus

E --2-4-|-5---------4-5-|-7---------5---7---|-17----------12-10-|-9--------9-7|-5---------4--5--|-12----10----9----14-12---|-14--14---------

E |-2-4-|-5---------4-5-|-7---------5---7---|-9---10--------9-7-|-5---------2-4-|-5--------4--5--|-7----5----4----0-0----|-2--2---------

E |-2-4-|-5----------4-5-|-7---------5-7-|-17--------------12-10-|-9-------9-7-|-5---------4-5-|-12----10----9----14-12----|-14-14----------|


Explosion

Secondary Harmony Guitar (on second chorus)

E |-2-4-|-5--------4-5-|-7--------5--7--|-17--------12-10-|-9-------9-7-|-5-------4--5--|-12---10----9----14--12----|-14-14-------


E |-2-4-|-9--------7-9-|-12------9-10-|-12--14------12-10-|-9-------5-7-|-9---------7--9--|-10--9--7----7-7---|-9-9--------


E |-5-7-|-9--------7-9-|-12------9--10--|-21----------21-19-|-17--------12-10-|-9--------7--9--|-17---17---19---17--19---|-21-21-----------

Explosion


Some of the jumps I know can be transposed to something better, but I when I switch E|-2-4-|-5-- to G|-11-13-|-14-- then fix the timing issues, it looks like evil death on a crap platter.

Much appreciated to anyone that can help fix this. I still have trouble with the transposition of the middle solo, and the power chords underneath don't come out right from Sonar (they either sound great in Midi, but are impossible to play chords, or sound horrible but are possible to play.) So if anyone can figure out a power chords, I'd be much appreciative too.

I normally don't ask internet people for help, but I'm using this song for my Demo Reel for animation in a couple months. Most people use some overplayed song. I'm going fully original. As soon as I get this all figured out, I'm gonna record it, clean it up, and level it so it sounds professional. Thanks in advance.

is there anyway for you to

necro666

Joined: Jul 12 2009

is there anyway for you to record it so if someone can help they get the just of how you want it to sound to build off it? also i take it most of this song is played on the 1st string right?

I kinda wanna not do that. I

atukomanga

Shiny/Glowy object collector

Location: Orlando, Florida, United States of America

Joined: Jun 13 2008

I kinda wanna not do that. I wanna play it over multiple strings, but I can't seem to get the transposing to work. Plus, my ear for doing it is not so great. The main reason I need the tabs is a buddy of mine (who's way better at guitar than I am) wanted to take it and help me write a lengthier, and bit more hardcore version (he also wants to write lyrics) However, he lives about 3000 miles away, so I can't just show him on my guitar how it's played.

And as far as recording it, it wouldn't be for another month as the guy that has all the recording equipment I use is out of town. Basically, I'd like simple, everyday three finger power chords, or Drop D power chords, whichever sounds cooler.

Also, I'm not set in stone on the whole standard/Drop D tuning. If someone knows of a tuning that would make it easier to play, but sound the same (or cooler), throw it at me.

----------


ウイル ワツク フォオ アニメ クラツプ
Will Work for Anime Crap

I do not see the tabs

pedroZ

Pedro Contero

Location: Mexicali B.C

Joined: Apr 25 2009

thumb_3re_zelda_wizard.jpg

I do not see the tabs

Weird....I still see them

atukomanga

Shiny/Glowy object collector

Location: Orlando, Florida, United States of America

Joined: Jun 13 2008

Weird....I still see them fine.

----------


ウイル ワツク フォオ アニメ クラツプ
Will Work for Anime Crap

I can't quite tell what's

Arteriorrhexis

Bigot

Location: Georgia... America.

Joined: Oct 13 2008

I can't quite tell what's going on with this

With age, life accelerates,

Tristan5

Joined: Feb 21 2022

With age, life accelerates, this is a fact. Our life itself is getting faster every year. And now you can earn without leaving home, for example, by reading the earnings of https://2captcha.com/ this is life, and you should play by its rules

Do you feel

witiz

James

Joined: Apr 03 2020

BestCustomWriting. Do you feel it difficult to tackle all your academic problems? Why do you continue suffering when it's possible to get help from custom term paper? This service is certainly worth spending your money on. Not so many companies can brag about the outstanding quality of services and such a big number of benefits BestCustomWriting can. You may not trust this description, but the first experience with this company will dispel your doubts and will help you to enjoy the freedom you've been dreaming about for so long.

----------

Where to find help for iPhone Glass Crack?
When you have manufactured goods, such as the iPhone, it is vital that you worry for this electronic gadget so that it will precede you many years. However, one of the easiest ways to be concerned for your Apple