You're looking at an archived, read-only version of our old community forum. See our new community forum here.

SNES - Top Gear Race Theme

kurebisubarudo

I'm who you mother warned you about

Location: Brazil

Joined: Apr 12 2009

Remember that ol' racing game from SNES, TOP GEAR? Well, this is my attempt of tabbing the race theme, based on varios tabs from all over the internet.
Its a little bit complicated but, if its too hard or something, then nevermind this tab :D
Just say what you think, ok?

Here's the Guitar Pro TAB!

and Here's the MIDI

Re: SNES - Top Gear Race Theme

CpxAzn

Lurker

Location: Atlanta, Georgia

Joined: Sep 21 2007

I think it would be easier if you changed it to this

                                                     
      S  S  S  S  S  S  S  S  S  S  S  S  S  S  S  S  
E||-----------------------12-16-12-------------------|
B||--------------------14----------14----------------|
G||*----------------13----------------13-------------|
D||*----------11-14----------------------14-11-------|
A||--------11----------------------------------11----|
E||---9-12----------------------------------------12-|


                                                  
   S  S  S  S  S  S  S  S  S  S  S  S  S  S  S  S  
-----------------------16-19-16-------------------|
--------------------17----------17----------------|
-----------------16----------------16-------------|
-----------14-18----------------------18-14-------|
--------14----------------------------------14----|
--12-16----------------------------------------16-|

Some position shifts, and the same for all of the other sweeps.

Re: SNES - Top Gear Race Theme

kurebisubarudo

I'm who you mother warned you about

Location: Brazil

Joined: Apr 12 2009

Well, i gotta say its much easier, now that the notes arent at the same fret.
And i'm happy for a reply to this tab. Thanks!
I'll wait some more improvements to post the new GP tab here