You're looking at an archived, read-only version of our old community forum. See our new community forum here.

Inside The Piate Ship- Legend Of Zelda: The Wind Wake

smiley

shadock number zo zo bu zo meu ga

Location: Laputa

Joined: Jul 04 2008

Tab:

http://www.gametabs.net/files/user/smiley/WindWaker.txt

Re: Inside The Pirate Ship- Legend Of Zelda: The Wind Waker

smiley

shadock number zo zo bu zo meu ga

Location: Laputa

Joined: Jul 04 2008

http://www.gametabs.net/files/user/smiley/WindWaker.txt

That one looked a little weird, dunno why:
try this one.

Re: Inside The Pirate Ship- Legend Of Zelda: The Wind Waker

smiley

shadock number zo zo bu zo meu ga

Location: Laputa

Joined: Jul 04 2008

http://www.gametabs.net/files/user/smiley/WindWaker.txt

That one looked a little weird, dunno why:
try this one.

Re: Inside The Pirate Ship- Legend Of Zelda: The Wind Waker

BooDoo

People

Location: Somerville, MA

Joined: Mar 24 2008

Is this what it should be like? I haven't listened to the song to check, just tried to clean it up in Notepad:

e|  ------------------------------------------
B|  ------------------------------------------
G|  ------------------------------------------
D|  --------------------------------10r-------
A|  --12--11h12--11h12-12-12r-----------------
E|  ------------------------------------------

e|  --------------------------------------------------
B|  --------------------------------------------------
G|  --------------------------------------------------
D|  --12h13--12h13--12h13--13-13--12------------------
A|  ------------------------------------------11r-----
E|  --------------------------------------------------

e|  ------------------------------------------
B|  ------------------------------------------
G|  ------------------------------------------
D|  --------------------------------10r-------
A|  --12--11h12--11h12-12-12r-----------------
E|  ------------------------------------------

e|  ----------------------------------------------
B|  ----------------------------------------------
G|  ----------------------------------------------
D|  --12h13--12h10----------10--------------------
A|  -------------------11h12------13-12--8r-------
E|  ----------------------------------------------

e|  ------------------------------------------
B|  ------------------------------------------
G|  --------------17-16-------17-16-----------
D|  --15-15-15-----------15----------15-------
A|  ------------------------------------------
E|  ------------------------------------------ x2

e|  ------------------------------------------
B|  ------------------------------------------
G|  ------------------------------------------
D|  --------------------------------10r-------
A|  --12--11h12--11h12-12-12r-----------------
E|  ------------------------------------------

e|  --------------------------------------------------
B|  --------------------------------------------------
G|  --------------------------------------------------
D|  --12h13--12h13--12h13--13-13--12------------------
A|  ------------------------------------------11r-----
E|  --------------------------------------------------


e|  -----------------------------------------
B|  -----------------------------------------
G|  -----------------------------------------
D|  --------------------------------10r------
A|  --12--11h12--11h12-12-12r----------------
E|  -----------------------------------------


e|  -----------------------------------------------
B|  -----------------------------------------------
G|  -----------------------------------------------
D|  --12h13--12h10----------10---------------------
A|  --------------------11h12------13-12--8r-------
E|  -----------------------------------------------

e|  ------------------------------------------------------------
B|  ------------------------------------------------------------
G|  --19-19-19---15-------------19-17---------------------------
D|  ---------------------15---20-------------------10h13--------
A|  ----------------------------------------15r-----------------
E|  ------------------------------------------------------------

e|  --------------------------------------------------------
B|  --------------------------------------------------------
G|  --17-17-17----13-------------17--15---------------------
D|  --------------------13----18----------------------------
A|  ----------------------------------------------13r-------
E|  --------------------------------------------------------

e|  --------------------------------------------------------
B|  --------------------------------------------------------
G|  --19-19-19---15------------19--17r---22-----------------
D|  --------------------15---20-----------------------------
A|  -----------------------------------------------20r------
e|  --------------------------------------------------------


E|  -----------------------------------------------------------
B|  -----------------------------------------------------------
G|  -----------------------------------------------------------
D|  ---------------17-18r---17-17-17--18-20r--20-19r-----------
A|  --16-16-16-------------------------------------------------
E|  -----------------------------------------------------------

Repeat and fade


Rhythm Guitar

E|  ------------------------------------------
B|  ------------------------------------------
G|  ------------------------------------------
D|  ------------------------------------------
A|  ------12-12-12-12-----15-15---------------
E|  --17------------------8-------------------

This is played for the whole song

Re: Inside The Pirate Ship- Legend Of Zelda: The Wind Waker

smiley

shadock number zo zo bu zo meu ga

Location: Laputa

Joined: Jul 04 2008

No, not really- i think i fixed it:
http://www.gametabs.net/files/user/smiley/1WindWaker.txt
If it doesnt work ill be mad XD

Re: Inside The Pirate Ship- Legend Of Zelda: The Wind Waker

smiley

shadock number zo zo bu zo meu ga

Location: Laputa

Joined: Jul 04 2008

very close- can u fix it up for me, whoever looks at it?
the rhythm guitar part, on the Low E string, there are like 3 dashes missing

Re: Inside The Pirate Ship- Legend Of Zelda: The Wind Waker

gBev

Joined: Feb 22 2009

Never played the game this is from, but fixed up your tab for you.

Here you go.

Re: Inside The Piate Ship- Legend Of Zelda: The Wind Wake

Heliographos

Matt Keith

Location: Okemos, MI

Joined: Jan 20 2009

smiley said

Tab:

http://www.gametabs.net/files/user/smiley/WindWaker.txt

The last post is tabbed out neater. Don't worry, I hate having to format it a kajillion times.

Also, great tab!

----------

"It's not rape unless you yell 'Surprise!' first."

My AIM is fatman75427

Re: Inside The Piate Ship- Legend Of Zelda: The Wind Wake

smiley

shadock number zo zo bu zo meu ga

Location: Laputa

Joined: Jul 04 2008

Are you going to post it though?

Re: Inside The Piate Ship- Legend Of Zelda: The Wind Wake

hslesperance

Location: Walpole, MA

Joined: Aug 10 2008

Thanks for fixing the tab Heliographos

http://www.gametabs.net/gamecube/legend-of-zelda-wind-waker/inside-pirat...

----------

My Original Songs - https://soundcloud.com/hslesperance