You're looking at an archived, read-only version of our old community forum. See our new community forum here.

Majora's Mask - Mikau

hslesperance

Location: Walpole, MA

Joined: Aug 10 2008

<pre>Version 1
e--0--0--0--0--3-3-3-3----0--0--0--0--3-3-3-3----0----
B--0--0--0--0--3-3-3-3----0--0--0--0--3-3-3-3----0----
G--0--0--0--0--3-3-3-3----0--0--0--0--3-3-3-3----0----
D--2--2--2--2--5-5-5-5----2--2--2--2--5-5-5-5----2----
A-------------------------------------------------------
E-------------------------------------------------------

Version 2
e--0--0--0--0--3-3-3-3----0--0--0--0--3-3-3-3----0----
B--0--0--0--0--3-3-3-3----0--0--0--0--3-3-3-3----0----
G--0--0--0--0--3-3-3-3----0--0--0--0--3-3-3-3----0----
D--2--2--2--2--5-5-5-5----2--2--2--2--5-5-5-5----2----
A--2--2--2--2--5-5-5-5----2--2--2--2--5-5-5-5----2----
E-------------------------------------------------------</pre>

The second version just has an extra note at the bottom.
Which one seems better?

Re: Majora's Mask - Mikau

Eloustical

Novice umong experts

Location: Naked on a toilet with a computer on my lap

Joined: Aug 20 2008

You're supposed to post the tab as a file attachment to your post, man. Just saying so you don't get in trouble

----------

They shouldn't have named it the Wii, it's the butt of too many stupid jokes. They should've named it the Perfect Nintendo Entertainment System(PNES).