You're looking at an archived, read-only version of our old community forum. See our new community forum here.

Yong Hwa - Comfort Song. Help with chords?

Yoshi

Joined: Jan 08 2012

Tempo = 90
Steel Guitar

Capo 3

Legend
L - tied note
x - dead note
h - hammer on/pull off
b - bend
s - slide
~ - vibrato
g - ghost note
> - accentuated note
t - trill
M - palm mute
. - staccato
P - popping (bass)
S - slapping (bass)
+ - tapping
W - wide vibrato
< - fade in
w - whammy bar
= - tremolo picking
v - brush up
^ - brush down
V - pick stroke up
n - pick stroke down

                                                             
D |-----------0-----0----------|-----------0----------------|
A |--------4-----------4-------|--------0--------0----------|
F#|-----------------------3----|----------------------------|
D |-----4----------------------|-----0--------------5-------|
A |--2-----------2-------------|----------------------------|
D |----------------------------|--5-------------------------|

                               ^                                     
--------------0-------------|--0--7----|-----------0-----------0----|
-----------------0----------|--0--7----|--------4-----------4-------|
----------------------------|--1--7----|-----3-----------3----------|
--------4--5--------5-------|--2-------|----------------------------|
-----2----------------------|--0-------|----------------------------|
--2-------------------------|----------|--0-------------------------|

                                                          
-----------0-----------0----|-----------0-----------0----|
--------4-----------4-------|--------4-----------4-------|
-----3-----------3----------|-----3-----------3----------|
----------------------------|----------------------------|
----------------------------|--2-------------------------|
--0-------------------------|----------------------------|

                                                          
-----------0-----------0----|-----------0-----------0----|
--------4-----------4-------|----------------------------|
-----3-----------3----------|--------1-----------1-------|
----------------------------|-----2-----------2----------|
--2-------------------------|----------------------------|
----------------------------|--2-------------------------|

                                                            ^        
--1--------2----------------|-----------0----------------|--2--7----|
----------------------------|----------------------------|--4--7----|
--------1--1--------1-------|--------1-----------1-------|--1--7----|
-----2-----------2-----2----|-----2-----------2----------|--2-------|
----------------------------|--0-------------------------|--0-------|
--2-------------------------|----------------------------|----------|

                                                          
-----------0-----------0----|-----------0-----------0----|
--------4-----------4-------|--------4-----------4-------|
-----3-----------3----------|-----3-----------3----------|
----------------------------|----------------------------|
----------------------------|----------------------------|
--0-------------------------|--0-------------------------|

                                                          
-----------0-----------0----|-----------0-----------0----|
--------4-----------4-------|--------4-----------4-------|
-----3-----------3----------|-----3-----------3----------|
----------------------------|----------------------------|
--2-------------------------|--2-------------------------|
----------------------------|----------------------------|

                                                          
-----------0-----------0----|--1--------2----------------|
----------------------------|----------------------------|
--------1-----------1-------|--------1--1--------1-------|
-----2-----------2----------|-----2-----------2-----2----|
----------------------------|----------------------------|
--2-------------------------|--2-------------------------|

                                           ^
-----------0----------------|--------------2-------------||
----------------------------|--------------4-------------||
--------1-----------1-------|--------1-----1-------------||
-----2-----------2----------|-----2--------2-------------||
--0-------------------------|--0-----------0-------------||
----------------------------|----------------------------||

So here's what I have so far. Can anyone help me figure out the chords in the chorus? I'm not so good at this.

Link to the song

Bump?

Yoshi

Joined: Jan 08 2012

~

This is in standard tuning

hslesperance

Location: Walpole, MA

Joined: Aug 10 2008

This is in standard tuning and the fingerings are not exactly the way it's played in the song, so you can move the notes around or add notes. But I think these chords are close.

    F        Dm       Bb   Gm   Csus4  Cadd9
e---1--------1------------------1-----------
B---1--------3--------3---------1------3----
G---2--------2--------3----3----0------0----
D---3--------0--------3----5----3------2----
A---------------------1----5----3------3----
E--------------------------3----------------

I think these notes in bold sound closer to the original.

--------------0-------------|--0--7----|-----------0-----------0----|
-----------------0----------|--0--7----|--------4-----------4-------|
----------------------------|--1--7----|-----3-----------3----------|
--------4--5--------5-------|--2-------|----------------------------|
-----2----------------------|--0-------|----------------------------|
--2-------------------------|----------|--0-------------------------|

                                                          
-----------0----------------|-----------0-----------0----|
--------4-----------4-------|--------4-----------4-------|
-----3-----------3-----3----|-----3-----------3----------|
----------------------------|----------------------------|
----------------------------|--2-------------------------|
--0-------------------------|----------------------------|

                                                          
-----------0----------------|-----------0----------------|
--------4-----------4-------|----------------------------|
-----3-----------3-----3----|--------1-----------1-------|
----------------------------|-----2-----------2-----2----|
--2-------------------------|----------------------------|
----------------------------|--2-------------------------|
----------

My Original Songs - https://soundcloud.com/hslesperance

Re: This is in standard tuning

Yoshi

Joined: Jan 08 2012

Thanks a lot man!