You're looking at an archived, read-only version of our old community forum. See our new community forum here.

Touhou 6: The Embodiment of Scarlet Devil - U.N. Owen Was Her?

Shrinx

Location: Australia

Joined: Sep 15 2013

This transcription is for 'U.N. Owen Was Her?' from Touhou 6: The Embodiment of Scarlet Devil
for PC.
Composed by ZUN.
This was a piece of work. In terms of structure, this track is all kinds of weird,
and I mean frequently-changing-time-signature weird. But a really cool track
nonetheless.
U.N. Owen Was Her?

Could you export a midi as

hslesperance

Location: Walpole, MA

Joined: Aug 10 2008

Could you export a midi as well?

----------

My Original Songs - https://soundcloud.com/hslesperance

Hmm....

Shrinx

Location: Australia

Joined: Sep 15 2013

Um, not sure. I was able to tab this in TuxGuitar, but it goes over four files
because of the change in time signatures. Unless you want me to export all four
into separate midi files?

It is possible to have

hslesperance

Location: Walpole, MA

Joined: Aug 10 2008

It is possible to have multiple time signatures within one tab, but it is difficult to change with TuxGuitar after everything is written. It is easier to edit time signatures in PowerTab, which is what I used to make this.

MIDI

Everything is moved down a half step. The song does not use A440 tuning so neither version sounds completely right, but this sounds closer to my ears. I also fixed some wrong notes. The song never goes to 3/4 time, only 5/4 and 4/4.

And it would be easier to read if the two guitars were separated if you want me to do that.

Gtr I (E A D G B E)
Gtr II (E A D G B E)

  Q=155
 5/4
  Gtr I
  S  S S S S S S S S S S S E. E S E   S  S S S S S S S S S S S E. E S E
|-----------------------------------|------------------------------------|
|-2------2-----2-----2-----1--1---1-|-2------2-----2-----2-----4--4---4--|
|----3-----3-----3-----3------------|----3-----3-----3-----3-------------|
|------3-----3-----3-----3----------|------3-----3-----3-----3-----------|
|-----------------------------------|------------------------------------|
|-----------------------------------|------------------------------------|
|
| Gtr II
| Q.           Q       E   H          Q.           Q       E   H
|-----------------------------------|------------------------------------|
|-----------------------------------|------------------------------------|
|----------------------3------------|----------------------3-------------|
|--------------3--------------------|--------------3-----------1---------|
|-1------------------------3--------|-1----------------------------------|
|-----------------------------------|------------------------------------|


  S  S S S S S S S S S S S E. E S E   S  S S S S S S S S S S S E. E S E
|-----------------------------------|-----------------------------------|
|-2------2-----2-----2-----1--1---1-|-2------2-----2-----2-----4--4---4-|
|----3-----3-----3-----3------------|----3-----3-----3-----3------------|
|------3-----3-----3-----3----------|------3-----3-----3-----3----------|
|-----------------------------------|-----------------------------------|
|-----------------------------------|-----------------------------------|
|
| Q.           Q       E   H          Q.           Q       E   H
|-----------------------------------|-----------------------------------|
|-----------------------------------|-----------------------------------|
|----------------------3------------|----------------------3------------|
|--------------3--------------------|--------------3-----------1--------|
|-1------------------------3--------|-1---------------------------------|
|-----------------------------------|-----------------------------------|


  S  S S S S S S S S S S S E. E S E   S  S S S S S S S S S S S E. E S E
|-----------------------------------|-----------------------------------|
|-2------2-----2-----2-----1--1---1-|-2------2-----2-----2-----4--4---4-|
|----3-----3-----3-----3------------|----3-----3-----3-----3------------|
|------3-----3-----3-----3----------|------3-----3-----3-----3----------|
|-----------------------------------|-----------------------------------|
|-----------------------------------|-----------------------------------|
|
| Q.           Q       E   H          Q.           Q       E   H
|-----------------------------------|-----------------------------------|
|-----------------------------------|-----------------------------------|
|-----------------------------------|--------------------------3--------|
|----------------------4------------|----------------------4------------|
|--------------4-----------3--------|--------------4--------------------|
|-2---------------------------------|-2---------------------------------|


  S  S S S S S S S S S S S E. E S E   S  S S S S S S S S S S S E. E S E
|-----------------------------------|-----------------------------------|
|-2------2-----2-----2-----1--1---1-|-2------2-----2-----2-----4--4---4-|
|----3-----3-----3-----3------------|----3-----3-----3-----3------------|
|------3-----3-----3-----3----------|------3-----3-----3-----3----------|
|-----------------------------------|-----------------------------------|
|-----------------------------------|-----------------------------------|
|
| Q.           Q       E   H          Q.           Q       E   H
|-----------------------------------|-----------------------------------|
|-----------------------------------|-----------------------------------|
|----------------------3------------|----------------------3------------|
|--------------3--------------------|--------------3-----------1--------|
|-1------------------------3--------|-1---------------------------------|
|-----------------------------------|-----------------------------------|


 4/4
  H    H       H     H      E E E E E E E E   E  E E  E E  E E  E
|-9----8----|-12----11----|---9---9---8---8-|---12---12---11---11--|
|-----------|-------------|-----------------|----------------------|
|-----------|-------------|-----------------|----------------------|
|-----------|-------------|-----------------|----------------------|
|-----------|-------------|-----------------|----------------------|
|-----------|-------------|-----------------|----------------------|
|
| W            W            W                 W
|-----------|-------------|-----------------|----------------------|
|-----------|-------------|-----------------|----------------------|
|-----------|-------------|-----------------|----------------------|
|-----------|-------------|-----------------|----------------------|
|-----------|-------------|-----------------|----------------------|
|-----------|-------------|-----------------|----------------------|


  E E E E E E E E   E  E E  E E  E E  E
|---9---9---8---8-|---12---12---11---11-|
|-----------------|---------------------|
|-----------------|---------------------|
|-----------------|---------------------|
|-----------------|---------------------|
|-----------------|---------------------|
|
| Q   Q   Q   Q     Q    Q    Q    Q
|-1-------0-------|-3--------------2----|
|-----3-------2---|------5----4---------|
|-----------------|---------------------|
|-----------------|---------------------|
|-----------------|---------------------|
|-----------------|---------------------|


  E E E E E E E E   E  E E  E  E   E E  E
|---9---9---8---8-|---12---12-----11---11-|
|-----------------|-----------------------|
|-----------------|-----------------------|
|-----------------|-----------------------|
|-----------------|-----------------------|
|-----------------|-----------------------|
|
| Q   Q   Q   Q     Q    Q     H
|-1-------0-------|-3---------11\---------|
|-----3-------2---|------5----------------|
|-----------------|-----------------------|
|-----------------|-----------------------|
|-----------------|-----------------------|
|-----------------|-----------------------|


  Q  Q  Q  Q    Q  E E Q  Q    E E E E E S S E E   E E E E H
|----1-----1--|------1----4--|-6---8-9-8-9-8-6---|--------------|
|-------1-----|-2--4---4-----|---6-------------9-|-6-9---6------|
|-3-----------|--------------|-------------------|-----8---6----|
|-------------|--------------|-------------------|--------------|
|-------------|--------------|-------------------|--------------|
|-------------|--------------|-------------------|--------------|
|
| H     H       H      H       H       H           W
|-------------|--------------|-------------------|--------------|
|-------------|--------------|-------------------|--------------|
|-------------|--------------|-------------------|--------------|
|-------------|--------1-----|-------------------|--------------|
|-------------|-1------------|-------------------|-1------------|
|-2-----4-----|--------------|-2-------4---------|--------------|


  Q  Q  Q  Q    Q  E E Q  Q    E E E E E S S E E   W
|----1-----1--|------1----4--|-6---8-9-8-9-8-6---|-6----|
|-------1-----|-2--4---4-----|---6-------------9-|------|
|-3-----------|--------------|-------------------|------|
|-------------|--------------|-------------------|------|
|-------------|--------------|-------------------|------|
|-------------|--------------|-------------------|------|
|
| H     H       H      H       H       H           W
|-------------|--------------|-------------------|------|
|-------------|--------------|-------------------|------|
|-------------|--------------|-------------------|------|
|-------------|--------1-----|-------------------|------|
|-------------|-1------------|-------------------|-1----|
|-2-----4-----|--------------|-2-------4---------|------|


  Q  Q  Q  Q    Q  E E Q  Q    E E E E E S S E E   E E E E H
|----1-----1--|------1----4--|-6---8-9-8-9-8-6---|--------------|
|-------1-----|-2--4---4-----|---6-------------9-|-6-9---6------|
|-3-----------|--------------|-------------------|-----8---6----|
|-------------|--------------|-------------------|--------------|
|-------------|--------------|-------------------|--------------|
|-------------|--------------|-------------------|--------------|
|
| H     H       H      H       H       H           W
|-------------|--------------|-------------------|--------------|
|-------------|--------------|-------------------|--------------|
|-------------|--------------|-------------------|--------------|
|-------------|--------1-----|-------------------|--------------|
|-------------|-1------------|-------------------|-1------------|
|-2-----4-----|--------------|-2-------4---------|--------------|


  Q  Q  Q  Q    Q  E E Q  Q    E E E E E S S E E   W
|----1-----1--|------1----4--|-6---8-9-8-9-8-6---|-6----|
|-------1-----|-2--4---4-----|---6-------------9-|------|
|-3-----------|--------------|-------------------|------|
|-------------|--------------|-------------------|------|
|-------------|--------------|-------------------|------|
|-------------|--------------|-------------------|------|
|
| H     H       H      H       H       H           W
|-------------|--------------|-------------------|------|
|-------------|--------------|-------------------|------|
|-------------|--------------|-------------------|------|
|-------------|--------1-----|-------------------|------|
|-------------|-1------------|-------------------|-1----|
|-2-----4-----|--------------|-2-------4---------|------|


  Q=151
  |-3-| |-3-| |-3-| |-3-|   |-3-| |-3-| |-3-| |-3-|
  E E E E E E E E E E E E   E E E E E E E E E E E E
|-6-----6-----6-----6-----|-6-----6-----6-----6-----|
|---6-----6-----6-----6---|---6-----6-----6-----6---|
|-----8-----8-----8-----8-|-----8-----8-----8-----8-|
|-------------------------|-------------------------|
|-------------------------|-------------------------|
|-------------------------|-------------------------|
|
| W                         W
|-------------------------|-------------------------|
|-------------------------|-------------------------|
|-------------------------|-------------------------|
|-------------------------|-------------------------|
|-1-----------------------|-1-----------------------|
|-------------------------|-------------------------|


  |-3-| |-3-| |-3-| |-3-|   |-3-| |-3-| |-3-| |-3-|
  E E E E E E E E E E E E   E E E E E E E E E E E E
|-5-----5-----5-----5-----|-5-----5-----5-----5-----|
|---6-----6-----6-----6---|---6-----6-----6-----6---|
|-----7-----7-----7-----7-|-----7-----7-----7-----7-|
|-------------------------|-------------------------|
|-------------------------|-------------------------|
|-------------------------|-------------------------|
|
| W                         W
|-------------------------|-------------------------|
|-------------------------|-------------------------|
|-------------------------|-------------------------|
|-0-----------------------|-0-----------------------|
|-------------------------|-------------------------|
|-------------------------|-------------------------|


  |-3-| |-3-| |-3-| |-3-|   |-3-| |-3-|     |-3--|
  E E E E E E E E E E E E   E E E E E E Q  +E  E E
|-5-----5-----3-----3-----|-1-----0-1-3------------|
|---6-----6-----5-----5---|---3---------3--(3)---1-|
|-----7-----7-----5-----5-|-----2--------------2---|
|-------------------------|------------------------|
|-------------------------|------------------------|
|-------------------------|------------------------|
|
| H           H             H           Q   Q
|-------------------------|------------------------|
|-------------------------|------------------------|
|-------------------------|------------------------|
|-------------------------|------------------------|
|-1-----------3-----------|-5-----------5---3------|
|-------------------------|------------------------|


  |-3-| |-3-| |-3-| |-3-|   |-3-| |-3-|
  E E E E E E E E E E E E   E E E E E E H
|-------------------------|-----------3-5----|
|-3-----3-----5-----5-----|-5-----5-6--------|
|---2-----2-----5-----5---|---6--------------|
|-----3-----3-----5-----5-|-----5------------|
|-------------------------|------------------|
|-------------------------|------------------|
|
| H           H             H           H
|-------------------------|------------------|
|-------------------------|------------------|
|-------------------------|------------------|
|-------------------------|------------------|
|-1-----------3-----------|-4-----------5----|
|-------------------------|------------------|


  |-3-| |-3-| |-3-| |-3-|   |-3-| |-3-|     |-3--|
  E E E E E E E E E E E E   E E E E E E Q  +E  E E
|-5-----5-----3-----3-----|-1-----0-1-3------------|
|---6-----6-----5-----5---|---3---------3--(3)---1-|
|-----7-----7-----5-----5-|-----2--------------2---|
|-------------------------|------------------------|
|-------------------------|------------------------|
|-------------------------|------------------------|
|
| H           H             H           Q   Q
|-------------------------|------------------------|
|-------------------------|------------------------|
|-------------------------|------------------------|
|-------------------------|------------------------|
|-1-----------3-----------|-5-----------5---3------|
|-------------------------|------------------------|


  |-3-| |-3-| |-3-| |-3-|   |-3-| |-3-| |-3-|
  E E E E E E E E E E E E   E E E E E E Q Q Q
|-------------------------|-------------5-5-5--|
|-3-----3-----5-----5-----|-5-----5-----5-5-5--|
|---2-----2-----5-----5---|---5-----5----------|
|-----3-----3-----5-----5-|-----5-----5--------|
|-------------------------|--------------------|
|-------------------------|--------------------|
|
| H           H             H           H
|-------------------------|--------------------|
|-------------------------|--------------------|
|-------------------------|--------------------|
|-------------------------|--------------------|
|-1-----------3-----------|-4------------------|
|-------------------------|--------------------|


  Q=155
  H    H       H     H      E E E E E E E E   E  E E  E E  E E  E
|-9----8----|-12----11----|---9---9---8---8-|---12---12---11---11-|
|-----------|-------------|-----------------|---------------------|
|-----------|-------------|-----------------|---------------------|
|-----------|-------------|-----------------|---------------------|
|-----------|-------------|-----------------|---------------------|
|-----------|-------------|-----------------|---------------------|
|
| W            W            W                 W
|-----------|-------------|-----------------|---------------------|
|-----------|-------------|-----------------|---------------------|
|-----------|-------------|-----------------|---------------------|
|-----------|-------------|-----------------|---------------------|
|-----------|-------------|-----------------|---------------------|
|-----------|-------------|-----------------|---------------------|


  E E E E E E E E   E  E E  E E  E E  E
|---9---9---8---8-|---12---12---11---11-|
|-----------------|---------------------|
|-----------------|---------------------|
|-----------------|---------------------|
|-----------------|---------------------|
|-----------------|---------------------|
|
| W                 W
|-----------------|---------------------|
|-----------------|---------------------|
|-----------------|---------------------|
|-----------------|---------------------|
|-----------------|---------------------|
|-----------------|---------------------|


  E E E E E E E E   E  E E  E E  E E  E
|---9---9---8---8-|---12---12---11---11-|
|-----------------|---------------------|
|-----------------|---------------------|
|-----------------|---------------------|
|-----------------|---------------------|
|-----------------|---------------------|
|
| W                 W
|-----------------|---------------------|
|-----------------|---------------------|
|-----------------|---------------------|
|-----------------|---------------------|
|-----------------|---------------------|
|-----------------|---------------------|


  E E E E E E E E   E  E E  E E  E E  E
|---9---9---8---8-|---12---12---11---11-|
|-----------------|---------------------|
|-----------------|---------------------|
|-----------------|---------------------|
|-----------------|---------------------|
|-----------------|---------------------|
|
| Q   Q   Q   Q     Q    Q    Q    Q
|-1-------0-------|-3--------------2----|
|-----3-------2---|------5----4---------|
|-----------------|---------------------|
|-----------------|---------------------|
|-----------------|---------------------|
|-----------------|---------------------|


  E E E E E E E E   E  E E  E E   E E  E
|---9---9---8---8-|---12---12----11---11-|
|-----------------|----------------------|
|-----------------|----------------------|
|-----------------|----------------------|
|-----------------|----------------------|
|-----------------|----------------------|
|
| Q   Q   Q   Q     Q    Q    H
|-1-------0-------|-3--------------------|
|-----3-------2---|------5----4\---------|
|-----------------|----------------------|
|-----------------|----------------------|
|-----------------|----------------------|
|-----------------|----------------------|


  E E E E E E E E   E  E E  E E  E E  E
|---9---9---8---8-|---12---12---11---11-|
|-----------------|---------------------|
|-----------------|---------------------|
|-----------------|---------------------|
|-----------------|---------------------|
|-----------------|---------------------|
|
| Q   Q   Q   Q     Q    Q    Q    Q
|-1-------0-------|-3--------------2----|
|-----3-------2---|------5----4---------|
|-----------------|---------------------|
|-----------------|---------------------|
|-----------------|---------------------|
|-----------------|---------------------|


  E E E E E E E E   E  E E  E  E   E E  E
|---9---9---8---8-|---12---12-----11---11-|
|-----------------|-----------------------|
|-----------------|-----------------------|
|-----------------|-----------------------|
|-----------------|-----------------------|
|-----------------|-----------------------|
|
| Q   Q   Q   Q     Q    Q     H
|-1-------0-------|-3---------11\---------|
|-----3-------2---|------5----------------|
|-----------------|-----------------------|
|-----------------|-----------------------|
|-----------------|-----------------------|
|-----------------|-----------------------|


 2/4
  H
|------|
|------|
|------|
|------|
|------|
|------|
|
| H
|------|
|------|
|------|
|------|
|------|
|------|


 4/4
  Q  Q  Q  Q    Q  E E Q  Q    E E E E E S S E E   E E E E H
|----1-----1--|------1----4--|-6---8-9-8-9-8-6---|--------------|
|-------1-----|-2--4---4-----|---6-------------9-|-6-9---6------|
|-3-----------|--------------|-------------------|-----8---6----|
|-------------|--------------|-------------------|--------------|
|-------------|--------------|-------------------|--------------|
|-------------|--------------|-------------------|--------------|
|
| H     H       H      H       H       H           W
|-------------|--------------|-------------------|--------------|
|-------------|--------------|-------------------|--------------|
|-------------|--------------|-------------------|--------------|
|-------------|--------1-----|-------------------|--------------|
|-------------|-1------------|-------------------|-1------------|
|-2-----4-----|--------------|-2-------4---------|--------------|


  Q  Q  Q  Q    Q  E E Q  Q    E E E E E S S E E   W
|----1-----1--|------1----4--|-6---8-9-8-9-8-6---|-6----|
|-------1-----|-2--4---4-----|---6-------------9-|------|
|-3-----------|--------------|-------------------|------|
|-------------|--------------|-------------------|------|
|-------------|--------------|-------------------|------|
|-------------|--------------|-------------------|------|
|
| H     H       H      H       H       H           W
|-------------|--------------|-------------------|------|
|-------------|--------------|-------------------|------|
|-------------|--------------|-------------------|------|
|-------------|--------1-----|-------------------|------|
|-------------|-1------------|-------------------|-1----|
|-2-----4-----|--------------|-2-------4---------|------|


  Q  Q  Q  Q    Q  E E Q  Q    E E E E E S S E E   E E E E H
|----1-----1--|------1----4--|-6---8-9-8-9-8-6---|--------------|
|-------1-----|-2--4---4-----|---6-------------9-|-6-9---6------|
|-3-----------|--------------|-------------------|-----8---6----|
|-------------|--------------|-------------------|--------------|
|-------------|--------------|-------------------|--------------|
|-------------|--------------|-------------------|--------------|
|
| H     H       H      H       H       H           W
|-------------|--------------|-------------------|--------------|
|-------------|--------------|-------------------|--------------|
|-------------|--------------|-------------------|--------------|
|-------------|--------1-----|-------------------|--------------|
|-------------|-1------------|-------------------|-1------------|
|-2-----4-----|--------------|-2-------4---------|--------------|


  Q  Q  Q  Q    Q  E E Q  Q    E E E E E S S E E   W
|----1-----1--|------1----4--|-6---8-9-8-9-8-6---|-6----*|
|-------1-----|-2--4---4-----|---6-------------9-|------*|
|-3-----------|--------------|-------------------|------*|
|-------------|--------------|-------------------|------*|
|-------------|--------------|-------------------|------*|
|-------------|--------------|-------------------|------*|
|
| H     H       H      H       H       H           W
|-------------|--------------|-------------------|------*|
|-------------|--------------|-------------------|------*|
|-------------|--------------|-------------------|------*|
|-------------|--------1-----|-------------------|------*|
|-------------|-1------------|-------------------|-1----*|
|-2-----4-----|--------------|-2-------4---------|------*|
----------

My Original Songs - https://soundcloud.com/hslesperance

Re: It is possible to have

Shrinx

Location: Australia

Joined: Sep 15 2013

Sounds good. I'm not sure why, but when I first started tabbing this,
it sounded like I did need to bring some notes a half step down, but when
I tried that with the rest of the song, a lot of notes sounded.... off.
I can't really explain it. But listening to your MIDI just then, it sounds
as good as I thought my original tab did. I guess if neither version is
entirely accurate, there wasn't too much I could do was there?
Again, I appreciate all your help. Thanks!
(I guess this is my way of saying, "Oh, I see. Well, you can go ahead
and add your changes and thanks again for the help."
.....I talk too much)

Final

hslesperance

Location: Walpole, MA

Joined: Aug 10 2008

Final version

http://www.gametabs.net/touhou-6-embodiment-scarlet-devil/un-owen-was-her-0

You should download powertab (it's free). I don't think tuxguitar exports text files with the note durations, so I assume you wrote those in yourself by hand. Powertab will export the note durations and it's just a better program for tabbing than tux or guitarpro, I think.

Get it here http://download.cnet.com/Power-Tab-Editor/3000-2133_4-10502034.html?part...

I also included the powertab file in the download folder if you ever wanted to edit it.

----------

My Original Songs - https://soundcloud.com/hslesperance

Re: Final

Shrinx

Location: Australia

Joined: Sep 15 2013

Awesome! Thank you once again for all your help. And I'll definitely give
Power Tab a shot.