You're looking at an archived, read-only version of our old community forum. See our new community forum here.

Castlevania: Lament of Innocence (House of Sacred Remains)

Alastor

Joined: Mar 09 2008

I've been trying to tab this little sucker out. After completing my first tab (the Mako Reactor one), I decided to take a shot at this one. Due to lack of food, sleep and comfort, it took me a very good while to tab out the slow parts of the tabs (the parts played on the organ). Because some notes sounded wrong when playing them at different strings.

OK but my main qualm isthe chorus part. I know the piano solo is also difficult but I'm fairly sure it's a harmonic scale. But I don't know for sure. And it's hard to tell what key the scale is in. I'm guessing it's in the key of F but it could be E or F# or A.

So far, I managed to tab out the intro.

Harmonic Minor, in the key of F:

E |------------8~-------9~---8----------------12~----
B |--------11-------------------11--8--9--------------
G |----10-----------10--------------------10---------
D |-----------------------------------------------------
A |-----------------------------------------------------
E |-----------------------------------------------------

E |----9--8------8--------------------------------|
B |----------11-----8--9~-------9~--------------|
G |---------------------------11-------8--10~---|
D |------------------------------------------------|
A |------------------------------------------------|

Re: Castlevania: Lament of Innocence (House of Sacred Remains)

Kb10

Joined: Feb 24 2008

Woot lament of innocence! good luck man =] and nice

----------

[url=http://www.ff-fan.com:2xs67esu][img:2xs67esu]http://www.ff-fan.com/chartest/banners/zack.jpg[/img:2xs67esu][/url:2xs67esu]

Re: Castlevania: Lament of Innocence (House of Sacred Remains)

BlackEfrain

3rd Level gamer

Location: Cabimas-Zulia Venezula

Joined: Jan 25 2008

Hey friend will help you with it, but also help me with my tab. I treat

Re: Castlevania: Lament of Innocence (House of Sacred Remains)

Alastor

Joined: Mar 09 2008

Not following? You want to help me in return for me helping you with something? Feel free to talk about it, I'm willing to help out myself!

Re: Castlevania: Lament of Innocence (House of Sacred Remains)

blank

glitteringprizes

Location: Vivec, Morrowind

Joined: Feb 15 2008

Sounds good so far, I'd be willing to help too if you needed it. I happen to be a huge Castlevania fan.

----------

Shhhhhhhhhhhhhhhh!