You're looking at an archived, read-only version of our old community forum. See our new community forum here.

LoZ: Wind Waker - Pirates of Dragon Roost Isle (remix)

BDawgPHD

The Professional

Joined: Dec 28 2007

I looked at the tab for the original version, and didn't really like it, since I'm far more used to the version from OCRemix.com (i think it was remixed by someone named Tyler Heath). I'm trying to create a tab based on that, using the same basic note scale from his remix, with some improvising so the whole song can be played on the guitar. Naturally, I can only get it so accurate, since I'm new to the guitar and all ;) so I'd appreciate your opinion of the tab so far. I already know someone's gonna tell me it should be an octave higher, but I think I like it the way it is. Like I said, I appreciate any feedback.

EDIT: sorry, forgot the link to the song -_-'

http://www.ocremix.org/remix/OCR01124/

And here's the tab, which i also forgot -_-'

e|---------------------------------------------------------------------|
B|---------------------------------------------------------------------|
G|--------------------------------------------------7------------------|
D|----7--8--7-8--10--7-------------8--7-8--10---7----------------------|
A|--7-------------------10------------------------7--------------------|
E|-------------------------10------------------------------------------|



e|---------------------------------------------------------------------|
B|---------------------------------------------------------------------|
G|--7-------7-----------------7----------------7-----------------------|
D|-----10-----10------8--10------------8--10-------10-----8------------|
A|---------------10---------------10-------------------------10--------|
E|---------------------------------------------------------------------|