You're looking at an archived, read-only version of our old community forum. See our new community forum here.

Secret of Mana - Ice Palace

archard

Joined: Jan 11 2007

Ok, I'm looking to get some feedback on this tab. It's my contribution to the Winter Themes Project. Some parts of it I just don't know what to do with yet as far as the harmony goes. Like measures 11-12 and measures 15-16, as well as the last two measures. So I'm especially looking for input on those parts.

GP5 | MIDI | Original MP3

     Q    Q    Q    Q       Q    Q    Q    Q       Q    Q    Q    Q     
E||--0-------------------|--0---------3---------|----------------------|
B||-----------------3----|-----------------1----|--3--------------1----|
G||-------0----2---------|-------2--------------|------------0---------|
D||--2-------------------|--2-------------------|--0----2--------------|
A||-----------------3----|-----------------3----|-----------------2----|
E||----------------------|----------------------|----------------------|


  Q    Q    Q    Q       Q    Q    Q    Q       Q    Q    Q    Q     
------------3---------|--0-------------------|--0---------3---------|
--3--------------3----|-----------------3----|-----------------1----|
-------0--------------|-------0----2---------|-------2--------------|
--0-------------------|--2-------------------|--2-------------------|
------------2---------|-----------------3----|-------3----2----3----|
----------------------|----------------------|----------------------|


  Q    Q    Q    Q       Q    Q    Q    Q       S S S S E  S S E  S S S S S S  
----------------------|------------3---------|--0---0---0----3-0----3-0-------|
--3--------------1----|--3--------------3----|-------------3------3-------3---|
------------0---------|-------0--------------|--------------------------------|
--0----2--------------|--0-------------------|--------2-3-------------3-2-----|
-----------------2----|----------------------|------3---------------------3---|
----------------------|----------------------|--1-3-------------------------3-|


  S S S S E  S S E  S S S S S S    S S S S Q    E  S S E  E   
--0---0---0----3-0----3-0-------|----------------------------|
-------------3------3-------3---|--0-1-0---------------------|
------------------------0-------|--------0---------0-2-0-----|
--------2-3---------------2-----|----------2----L---------4--|
------3---------------------3---|----------------------------|
--1-3-------------------------1-|----------------------------|


  Q    Q    Q    Q       S S S S E  S S E  S S S S S S  
----------------------|--0---0---0----3-0----3-0-------|
------------0----3----|-------------3------3-------3---|
--0----2--------------|--------------------------------|
----------------------|--------2-3-------------3-2-----|
----------------------|------3---------------------3---|
----------------------|--1-3-------------------------3-|


  S S S S E  S S E  S S S S S S    S S S S Q.     S S E.  S  
--0---0---0----3-0----3-0-------|---------------------------|
-------------3------3-------3---|--0-1-0----------0-1-3---1-|
------------------------0-------|--------0------------------|
--------2-3---------------2-----|----------2----------------|
------3---------------------3---|---------------------------|
--1-3-------------------------1-|---------------------------|


  Q.     S S H           S S S S S S S S S S S S S S S S  
----------------------|----------------------------------|
--0--------0----------|--1-------1-------1---3---1-------|
---------2---0--------|------2-------2-----0---2-----2---|
----------------------|----3---3---3---3-----------3---3-|
----------------------|----------------------------------|
----------------------|----------------------------------|


  S S S S S S S S S S S S S S S S    S S S S S S S S S S S S S S S S  
----------------------------------|--0-------0-------0---3---0-------|
--1-------1---3---1-------1---3---|------1-------1-----1---------1---|
------2-----0---2-----2---------2-|----2-------2-----------0---2-----|
----3---3-----------3---3---3-----|--------2-------2---------------2-|
----------------------------------|----------------------------------|
----------------------------------|----------------------------------|


  S S S S S S S S S S S S E  E     S S S S S S S S S S S S S S S S  
--0-------0---3---0-------0-----|----------------------------------|
------1-----1---------1------3--|--1-------1-------1---3---1-------|
----2-----------0---2-----------|------2-------2-----0---2-----2---|
--------2---------------2-------|----3---3---3---3-----------3---3-|
--------------------------------|----------------------------------|
--------------------------------|----------------------------------|


  S S S S S S S S S S S S S S S S    S S S S S S S S S S S S S S S S  
----------------------------------|--0-------0-------0---3---0-------|
--1-------1---3---1-------1---3---|------1-------1-----1---------1---|
------2-----0---2-----2---------2-|----2-------2-----------0---2-----|
----3---3-----------3---3---3-----|--------2-------2---------------2-|
----------------------------------|----------------------------------|
----------------------------------|----------------------------------|


  E  Q.     H           E  Q.     H                  
--0------------------|---------------------|-------||
-----3------L--------|--3--1------L--------|-------||
---------------------|---------------------|-------||
---------------------|---------------------|-------||
---------------------|---------------------|-------||
---------------------|---------------------|-------||