You're looking at an archived, read-only version of our old community forum. See our new community forum here.

Super Mario RPG - Fight Against an Armed Boss

ThousandKnives

Joined: Mar 14 2013

Hello, this is my first bass tab from one of my favorite games.

Hope you like it.

http://www.speedyshare.com/nBjvB/Fight-Against-an-Armed-Boss.txt

I moved all the notes down a

hslesperance

Location: Walpole, MA

Joined: Aug 10 2008

I moved all the notes down a fret because the flat signs showed up as rectangles in notepad and I thought it was just standard tuning. I don't really see the point in tuning down a step, so maybe you can post both standard and Eb tuning.

And I think Part C might be the same as Part A.
If auriplane reads this maybe she can confirm, since she's good with bass.

Ignore the flat signs, this version is standard tuning.

Intro:   00:04 - 00:10
G♭-------------------------------------------------------------------------------------------
D♭-------------------------------------------------------------------------------------------
A♭----3---------3---------3---------3---------3---------3---------3---------3----------------
E♭------3-2-3-----3-2-3-----3-2-3-----3-2-3-----3-2-3-----3-2-3-----3-2-3-----3-2-3----------

Part A:  00:11 - 00:17 
G♭-------------------------------------------------------------------------------------------
D♭----1---------1---------1---------1---------1---------1---------1---------1----------------
A♭------1-0-1-----1-0-1-----1-0-1-----1-0-1-----1-0-1-----1-0-1-----1-0-1-----1-0-1----------
E♭-------------------------------------------------------------------------------------------

Part B:  00:18 - 00:23
G♭-------------------------------------------------------------------------------------------
D♭-------------------------------------------------------------------------------------------
A♭----3---------1---------3---------4---------3---------1---------3---------4----------------
E♭------3-2-3-----1-0-1-----3-2-3-----4-3-4-----3-2-3-----1-0-1-----3-2-3-----4-3-4----------

Part C:  00:24 - 00:30
G♭-------------------------------------------------------------------------------------------
D♭-------------------------------------------------------------------------------------------
A♭----3---------3---------3---------3---------3---------3---------3---------3----------------
E♭------3-4-3-----3-4-3-----3-4-3-----3-4-3-----3-4-3-----3-4-3-----3-4-3-----3-4-3---------

Part D:  00:30 - 00:37
G♭-------------------------------------------------------------------------------------------
D♭-------------------------------------------------------------------------------------------
A♭----1---------1---------1---------1---------1---------1---------1---------1----------------
E♭------1-0-1-----1-0-1-----1-0-1-----1-0-1-----1-0-1-----1-0-1-----1-0-1-----1-0-1----------

Part E:  00:38 - 00:44
G♭-------------------------------------------------------------------------------------------
D♭-------------------------------------------------------------------------------------------
A♭------6-5-6-----6-5-6-----6-5-6-----6-5-6-----4-3-4-----4-3-4-----4-3-4-----4-3-4----------
E♭----4---------4---------4---------4---------2---------2---------2---------2----------------

Outro:   00:45 - 00:51
G♭-------------------------------------------------------------------------------------------
D♭-------------------------------------------------------------------------------------------
A♭----3---------3-----------6-5-6---3---------3---------1---------3---------3----------------
E♭------3-2-3-----3-2-3---4-----------3-2-3-----3-2-3-----1-0-1-----3-2-3--------------------


Repeat another time and done :)
----------

My Original Songs - https://soundcloud.com/hslesperance

Yes, that's right. Part C is

auriplane

Joined: Sep 06 2008

EDIT: Part C is the same as the intro, not part A. I assume that's what you meant. So the way the submitter had it was correct.

You did leave out the last 3 notes of the song before it repeats:

Intro:   00:04 - 00:10
G-------------------------------------------------------------------------------------------
D-------------------------------------------------------------------------------------------
A----3---------3---------3---------3---------3---------3---------3---------3----------------
E------3-2-3-----3-2-3-----3-2-3-----3-2-3-----3-2-3-----3-2-3-----3-2-3-----3-2-3----------

Part A:  00:11 - 00:17 
G-------------------------------------------------------------------------------------------
D----1---------1---------1---------1---------1---------1---------1---------1----------------
A------1-0-1-----1-0-1-----1-0-1-----1-0-1-----1-0-1-----1-0-1-----1-0-1-----1-0-1----------
E-------------------------------------------------------------------------------------------

Part B:  00:18 - 00:23
G-------------------------------------------------------------------------------------------
D-------------------------------------------------------------------------------------------
A----3---------1---------3---------4---------3---------1---------3---------4----------------
E------3-2-3-----1-0-1-----3-2-3-----4-3-4-----3-2-3-----1-0-1-----3-2-3-----4-3-4----------

Part C:  00:24 - 00:30
G-------------------------------------------------------------------------------------------
D-------------------------------------------------------------------------------------------
A----3---------3---------3---------3---------3---------3---------3---------3----------------
E------3-2-3-----3-2-3-----3-2-3-----3-2-3-----3-2-3-----3-2-3-----3-2-3-----3-2-3----------

Part D:  00:30 - 00:37
G-------------------------------------------------------------------------------------------
D-------------------------------------------------------------------------------------------
A----1---------1---------1---------1---------1---------1---------1---------1----------------
E------1-0-1-----1-0-1-----1-0-1-----1-0-1-----1-0-1-----1-0-1-----1-0-1-----1-0-1----------

Part E:  00:38 - 00:44
G-------------------------------------------------------------------------------------------
D-------------------------------------------------------------------------------------------
A------6-5-6-----6-5-6-----6-5-6-----6-5-6-----4-3-4-----4-3-4-----4-3-4-----4-3-4----------
E----4---------4---------4---------4---------2---------2---------2---------2----------------

Outro:   00:45 - 00:51
G-------------------------------------------------------------------------------5-----------
D-------------------------------------------------------------------------------------------
A----3---------3-----------6-5-6---3---------3---------1---------3---------3----------------
E------3-2-3-----3-2-3---4-----------3-2-3-----3-2-3-----1-0-1-----3-2-3------------2-3-----

Technically those last two notes also play when the bass first begins, so you could put them at the top of the tab.

(Or leave those 3 notes out and just post it the way the submitter had--it's a pretty minor detail.)

----------

Auriplane!!

BTW, the choice to play in

auriplane

Joined: Sep 06 2008

BTW, the choice to play in E-flat-standard is legit. Some bassists don't like to ever play open strings. Some people just like the way it sounds.

Adding a version in E-standard probably makes the tab a little more helpful to people, though.

----------

Auriplane!!

Thanks, I did mean the intro.

hslesperance

Location: Walpole, MA

Joined: Aug 10 2008

Thanks, I did mean the intro. And I didn't know about the e flat tuning.

----------

My Original Songs - https://soundcloud.com/hslesperance

Intro is the same as part C,

ThousandKnives

Joined: Mar 14 2013

Intro is the same as part C, thanks for the correction.

The reason I made the tab in Eb tuning is because when I was playing the song, I noticed my bass was tuned into Eb tuning and I already transcribed all the tab based on that one, so rather that redoit again in normal tuning I left it in the Eb one :P

Thanks for your help guys, next time I should post in the WIP forum before :)

Here's the tab

hslesperance

Location: Walpole, MA

Joined: Aug 10 2008

Here's the tab http://www.gametabs.net/super-mario-rpg/fight-against-armed-boss

Good job, there's no need to post in the WIP just for a couple small mistakes.

----------

My Original Songs - https://soundcloud.com/hslesperance