You're looking at an archived, read-only version of our old community forum. See our new community forum here.

Xenoblade - Mechanical Rhythm

ChelseaRare

Location: New York

Joined: Dec 01 2008

Mechanical Rhythm tab

1. I can't get that solo towards the end, so if anyone wants to help out there it would be appreciated.
2. The clean bit at the end probably isn't right, but I just felt like putting a filler and that happened to fit to some degree.

I tried.

On another note, I've got a good amount of the other battle theme tabbed out too.

I tried the fast guitar solo,

hslesperance

Location: Walpole, MA

Joined: Aug 10 2008

I tried the fast guitar solo, I think it's close but maybe someone can correct me. I didn't bother with note durations so you will have to do that yourself

    1:53
e----------------------------------------------------------------------
B------8-9-11-11/13--11---------------------------10-------------------
G---10------------------13-12--12-13-12-10--12-13----12--------12-13---
D--------------------------------------------------------13-10---------
A----------------------------------------------------------------------
E----------------------------------------------------------------------
    1:59
e-----------------------13----13--16-18-18b20-20r-16----16-------------
B---11---------------13----16------------------------18----18----------
G------13-12-13-10/--------------------------------------------15-17---
D----------------------------------------------------------------------
A----------------------------------------------------------------------
E----------------------------------------------------------------------
    2:05
e----------------------------------------------------------------------
B----------------------------------------------------------------------
G---15-17-20-17-15-17-20-17-15-17-20-17-15-17-20-17-15-17-16-15----15--
D---------------------------------------------------------------18-----
A----------------------------------------------------------------------
E----------------------------------------------------------------------

e------------------------------16-15-----------------------------------
B---------16-18-16-------16-18-------18-16--16-18----------------------
G---15-17----------15-17-----------------------------------------------
D----------------------------------------------------------------------
A----------------------------------------------------------------------
E----------------------------------------------------------------------
    2:18
e------15-16-18-16-15--------------------------------------------------
B---18----------------18-----------------------------------------------
G----------------------------------------------------------------------
D----------------------------------------------------------------------
A----------------------------------------------------------------------
E----------------------------------------------------------------------

Clean Part

e-----------------------------------5----------------------------------
B-------6--5-6--------8--6-5------6---6--8-5----8---5-8-5--------------
G-----5--------5----5--------7----------------7---7-------5------------
D---0-------------0-------------0--------------------------------------
A----------------------------------------------------------------------
E----------------------------------------------------------------------
----------

My Original Songs - https://soundcloud.com/hslesperance

Thanks for the input. I

ChelseaRare

Location: New York

Joined: Dec 01 2008

Thanks for the input. I edited my tab and put in what you got for 2:05 with a few added notes to complete the measure.

Edited tab

I guess while I'm at it, I finished the other battle theme too.
Those Who Bear the Name

----------

(.?!)

Forgot how awesome the battle

hslesperance

Location: Walpole, MA

Joined: Aug 10 2008

Forgot how awesome the battle themes are, I usually listen to the more relaxing tracks

http://www.gametabs.net/xenoblade-chronicles/mechanical-rhythm

http://www.gametabs.net/xenoblade-chronicles/those-who-bear-name

----------

My Original Songs - https://soundcloud.com/hslesperance

Thank you for uploading

ChelseaRare

Location: New York

Joined: Dec 01 2008

Thank you for uploading them.

I get a huge kick out of the whole soundtrack. I'm in the process of tabbing about 3 other tracks and I'll probably do more after playing through the game again lol.

A fingerstyle arrangement of this one is in the works currently ^_^
http://www.youtube.com/watch?v=0pdCgnnudy8

----------

(.?!)

I've only heard the music

auriplane

Joined: Sep 06 2008

I've only heard the music from this game via submissions on this site, and I've got to say the soundtrack is blowing me away @[email protected] This song is amazing, and so was that other song the other person submitted.

Hehe, I have to learn this on 7-string :-D

----------

Auriplane!!

Yeah the music is amazing,

hslesperance

Location: Walpole, MA

Joined: Aug 10 2008

Yeah the music is amazing, especially the tracks by ACE+. Gaur Plain my favorite and I'll probably tab that

http://www.youtube.com/watch?v=xweRl4LZlmo

also Riki! http://www.youtube.com/watch?v=QjiAWFOq_-E

Almost makes me want to dust off the Wii and (gasp) buy a new game

----------

My Original Songs - https://soundcloud.com/hslesperance