You're looking at an archived, read-only version of our old community forum. See our new community forum here.

TACTICS OGRE

iamHoustonian

You don’t need to see my identification…

Location: Jacksonville, Fl

Joined: Oct 03 2011

Bapalu: "You are the guerillas from Griate. Are you trying to rescue Ronway?"
This song plays in the first dialogue scene and battle of the game.
Notice of Death
http://www.youtube.com/watch?v=k50jJirBr20

I also did this one. Warren

iamHoustonian

You don’t need to see my identification…

Location: Jacksonville, Fl

Joined: Oct 03 2011

I also did this one.
Warren Report
http://www.youtube.com/watch?v=aM-CtqSQe9M
These songs are from the PSX version. I think the SFC version has a slightly different soundtrack.

I could use a little help

iamHoustonian

You don’t need to see my identification…

Location: Jacksonville, Fl

Joined: Oct 03 2011

I could use a little help with the high notes playing in the background in Notice of Death. Too high for guitar?
Warren Report seems pretty good but I'm not sure hehe =^.^=
Hook it up with some suggestions folks, Thanks!

I've been having some trouble

iamHoustonian

You don’t need to see my identification…

Location: Jacksonville, Fl

Joined: Oct 03 2011

I've been having some trouble with this one
Agitation
http://www.youtube.com/watch?v=A8K-flM3agY
Appropriately named. Been annoyed that I can't figure this one out. hehe

Updated. I think they're

iamHoustonian

You don’t need to see my identification…

Location: Jacksonville, Fl

Joined: Oct 03 2011

Updated.
I think they're almost ready for submission.

Agitation - The second part

hslesperance

Location: Walpole, MA

Joined: Aug 10 2008

The second part of guitar 1 should be an octave lower, but you would have to change the tuning. I made some changes to guitar 2 and 3 as well

Agitation

Guitar I
Part I
e-------------------------------------------------------------
B-------------------------------------------------------------
G------------------------------------------------------------- X 3
D-------------------------------------------------------------
A--------------------------4----------------------------------
E--3h4p3-6--3--3--4--3h4p3----3--3--4--3h4p3-6--3--3--4-------

Guitar I
Part II Plays at :21
e-------------------------------------------------------------
B-------------------------------------------------------------
G-------------------------------------------------------------
D--------------------------6----------------------------------
A--3h4p3-7--3--3--4--3h4p3----3--3--4--3h4p3-7--3--3--4-------
E-------------------------------------------------------------



Guitar II
e--------------16L----------------------------------16-16-----
B--------16-15------------------------------------------------
G--12-13------------------------------------------------------
D-------------------------------------------------------------
A-------------------------------------------------------------
E-------------------------------------------------------------

Guitar III     
e-------------------------------------------------------------
B-------------------------------------------------------------
G-------------------------11L-----------------------11-11-----
D-------------------11-10-------------------------------------
A--------------9-10-------------------------------------------
E-------------------------------------------------------------
Play Guitar II and III together starting Guitar III's part when Guitar II's e16L is played



Guitar II
e--16-15---------------------------
B--------15-18-17------------------
G-----------------17---------------
D----------------------------------
A----------------------------------
E----------------------------------

Guitar II                                        
e--------------16--15------------------20--19--16--------------16--15-----
B--15--16--17----------17--15--16--17--------------15--16--17----------17-
G-------------------------------------------------------------------------
D-------------------------------------------------------------------------
A-------------------------------------------------------------------------
E-------------------------------------------------------------------------

                           Or 
Guitar II
e--------------------------------------20--19-----------------------------
B--------------21--20--------------------------21--------------21--20-----
G--19--20--21----------21--19--20--21--------------19--20--21----------21-
D-------------------------------------------------------------------------
A-------------------------------------------------------------------------
E-------------------------------------------------------------------------
----------

My Original Songs - https://soundcloud.com/hslesperance

The b5 and e4 that you wrote

hslesperance

Location: Walpole, MA

Joined: Aug 10 2008

The b5 and e4 that you wrote three times in a row should be played two times

Warren Report

e-----------------------------------------------4--4-------------------
B------------------------------5--5--4----------------7--4--5--4-------
G--------------6--5---------------------4--6----------------------4----
D-----4--6--8----------6--8--------------------------------------------
A--4-------------------------------------------------------------------
E----------------------------------------------------------------------
----------

My Original Songs - https://soundcloud.com/hslesperance

I think this repeats until

hslesperance

Location: Walpole, MA

Joined: Aug 10 2008

I think this repeats until about 0:37 then it gets difficult to hear. You don't have to include that instrutment though

Notice of Death

e---17----17----18----18----20----20----18----18------
B------15----15----15----15----15----15----15----15---
G-----------------------------------------------------
D-----------------------------------------------------
A-----------------------------------------------------
D-----------------------------------------------------
----------

My Original Songs - https://soundcloud.com/hslesperance

Thanks Hsl! I'm giving this

iamHoustonian

You don’t need to see my identification…

Location: Jacksonville, Fl

Joined: Oct 03 2011

Thanks Hsl! I'm giving this game another play-through these days.

Agitation - That song was proving difficult to tab so I kind of just put what I had out there instead of speculating and getting nowhere haha Looks better though. I'll keep working on this one, might submit the other two.

Warren Report - I was thinking it may be 2 instead of 3. It still kind of sounds like 3 notes for the e4 part, but it is pretty hard to hear.

Notice of Death - My sentiments exactly, leave that part out. I really like this song it gives me this feeling of like having a justifiable obligation for revenge. hahaha
Hello. My name is Inigo Montoya. You killed my father. Prepare to die.