You're looking at an archived, read-only version of our old community forum. See our new community forum here.

Breath of Fire 3 - Donden

BacardiBreezer

My life is a chip in your pile. Ante up!

Location: NE Ohio

Joined: Aug 16 2010

I need some help with the flute. I can't hear all of the notes, the first measure is right though...

Donden

http://www.youtube.com/watch?v=g0sRq3FA-tc

I think I tabbed it an octave

hslesperance

Location: Walpole, MA

Joined: Aug 10 2008

I think I tabbed it an octave down, so all the notes would fit, How does that look?

Guitar 3 - Flute, begins at 22 seconds

tr = trill
e|----------------------------------------------------------------|
B|---------------------------------------------------15\12--19\12-|
G|--16tr17------------------------------------16\12---------------|
D|------------16--17--19--17--16----------------------------------|
A|--------------------------------17-------17---------------------|
E|--------------------------------------19------------------------|

e|----------------------------------------------------------|
B|-------------------------------------------------------19-|
G|----------------14---------------------18--16-18-16-18----|
D|--14-16-17-16-------------19-17-16------------------------|
A|-----------------------------------17---------------------|
E|----------------------------------------------------------|

e|------------------------|
B|--15h17-15-14-15--17----|
G|---------------------14-|
D|------------------------|
A|------------------------|
E|------------------------|

e|--------------------------------------------------------------14-------------14-16tr17-|
B|--------14-17-15-14-15-14-------------------14----14-------14----17-15-17-14-----------|
G|-----14-------------------14-------------------16----13-14-----------------------------|
D|--16-------------------------14----------16--------------------------------------------|
A|--------------------------------17-16-17-----------------------------------------------|
E|---------------------------------------------------------------------------------------|

Good luck playing it

And the piano should be like this right?

e|--3--5----3--5----3--5----3--5-------5--7----5--7----5--7----5--7-----|
B|--5--5----5--5----5--5----5--5-------7--7----7--7----7--7----7--7-----|
G|----------------------------------------------------------------------|
D|----------------------------------------------------------------------|
A|----------------------------------------------------------------------|
E|----------------------------------------------------------------------|
----------

My Original Songs - https://soundcloud.com/hslesperance

Haha oh man. That's great,

BacardiBreezer

My life is a chip in your pile. Ante up!

Location: NE Ohio

Joined: Aug 16 2010

Haha oh man. That's great, you're awesome. And yes about the piano.

You want me to delete that

hslesperance

Location: Walpole, MA

Joined: Aug 10 2008

You want me to delete that "day of rapture"? I'm pretty sure it didn't happen

http://www.gametabs.net/breath-fire-iii/donden

----------

My Original Songs - https://soundcloud.com/hslesperance