Title Screen (Flimbo's Quest) Guitar Tab

Submitted: Jan 25, 2013 by diralark (Last updated: Jan 25, 2013)

5
Average: 5 (1 vote)
Download | Listen
Game: Flimbo's Quest
Composer(s): Reyn Ouwehand
Style: Arrangement, Fingerstyle

AutoScroll: Slow | Medium | Fast
                          Title     --      Flimbo's Quest (c64)

Music by Reyn Ouwehand, Johannes Bjerregaard >> sequenced by Mirsoft >> guitar arr. by Diralark

Guitar, Dropped D tunning, Tempo : 130, let ring chords between the silences

     (Intro)                                                                              
     E     E  E  E  E  E  E  E     E  E  E  E  E  E   E  E     E  E  E  E  E  E  E  E   
E||--------------------3-----0--|---------------------------|--------------------------|
B||--------0-----3--------------|-----1---------------------|-----------------3-----1--|
G||--0--------------------------|-----------0------------0--|-----0-----2--------------|
D||-----------------------------|-----------------2h--4-----|--4-----------------------|
A||-----------------------------|---------------------------|--------------------------|
D||-----------------------------|---------------------------|--------------------------|


  E  E  E  E  E  E  E  E     E  E  E  E  E  E  E  E     E  E  E  E  E  E   E  E   
--------------------------|-----------------3-----5--|-----0------------------3--|
-----0-----0--------------|-----0-----3--------------|---------------------------|
--------2--------0--------|--0-----------------------|-----------5-----0h--5-----|
-----------------------4--|--------------------------|---------------------------|
--------------------5-----|--------------------------|---------------------------|
--------------------------|--------------------------|---------------------------|


                                                    SEGNO                       
                                                      ^                            
  E  E  E  E  E  E  E  S S    Q    Q    H             E      E  E  E  E  E  E  E   
--2--0-----------2-----3-3-|--3------------------||----------------------3-----0--|
-----------3---------------|---------------------||----------0-----3--------------|
---------------------------|---------------------||*--0------0-----0-----0-----0--|
---------------------------|---------------------||*------------------------------|
---------------------------|---------------------||-------------------------------|
---------------------------|---------------------||---5---------------5-----------|


           ^                  ^                                                   
  E  E  E  E  E  E   E  E     E  E  E  E  E  E  E  E     E  E  E  E  E  E  E  E   
---------------------------|--------------------------|--------------------------|
-----1-----1-----1---------|-----------------3-----1--|-----0-----0--------------|
-----------0------------0--|-----0-----2--------------|-----0-----------0--------|
-----------------2h--4-----|--4--0-----0-----0-----0--|--------7--------0-----4--|
--3-----------3------------|--------------------------|--------------------5-----|
---------------------------|--0-----------0-----------|--5-----------0-----------|


  ^                             ^                                      ^          
  E  E  E  E  E  E  E  E     E  E  E  E  E  E  E  E     E  E  E  E  E  E  E  S S  
-----------------3-----5--|-----0-----------------3--|--2--0-----------2-----3-3-|
-----0-----3--------------|-----1-----1--------1-----|-----------3---------------|
--0--0-----0-----0-----0--|-----------------0--------|---------------------------|
--------------------------|--------------------------|-----0-----0-----0-----0---|
--------------------------|--3-----------3-----------|---------------------------|
--5-----------5-----------|--------------------------|--0-----------0------------|


                           1.______________(bridge 1)                                          
  ^                                   ^                                        
  E  E  E  E  E  E  E  E     E  E  E  Q    E  E  E     E  E  E  Q    E  E  E   
--3-----------------------|-------------------------|-------------------------|
--------------------------|-------------------------|--0--------0-------0-----|
-----0-----0-----0-----0--|--2--------2-------2-----|-----0-----0----------0--|
--------------------------|-----4-----4----------4--|--------0-------0--0-----|
--------------------------|-------------------------|-------------------------|
--5-----------5-----------|--0-----0-------0--------|--5--------5-------------|


           ^                             ^              ^                       
  E  E  E  E  E  E  E  E     E  E  E  E  E  E  E  E     E  E  E  Q    E  E  E   
--------------------------|--------------------------|--5--------5-------5-----|
--1--------1--------1-----|--------------------------|-----7----------------7--|
-----0--------0-----0--0--|--2-----------2-----------|--------7-------7--------|
--------2--2-----2--------|--4--4--2--0-----0--2--4--|--7--------7-------7-----|
--3-----------------3-----|--------------------------|-------------------0-----|
--------------------------|--0-----------0-----------|--0--------0----0--------|


                             VIII                                                         
  ^        ^                                                      ^     ^      ^          
  E  E  E  Q    E  E  E      E    E  E   E   E  E   E   E     E   Q     E  E   Q    E     
--7--------7-------8--7--|---8-----------8----------8------|-----10----10-----10--------||
--0--8-----0-------0-----|--------8----------8----------8--|--L--10----10-----10--------||
-----0-----0-------------|-----------9----------9----------|---------------------------*||
--------0----------0-----|---------------------------------|--0---------------------0--*||
-------------------------|-------10---------10---------10--|--0------------0------------||
--9-------------0--------|--10----------10---------10------|--0------------0------------||


2.______________(bridge 2)                           V     -]                
  ^                  ^                               ^              ^        
  E  E  E  Q    Q    E     E  E  E  E  E  Q    E     E  E  E  E  E  Q    E   
------------------------|-------------------------|-------------------------|
-----1--1--1------------|--------3--------3-------|-----------------3-------|
----------------0-------|-------------------------|--------7--0-----0----0--|
--2--------2----2----4--|-----0-----0--0--0----0--|-----5--------0----------|
--3--------3---------5--|-----------0-------------|--5--------2-----2-------|
------------------------|--0----------------------|--5----------------------|


                             ^                                  ^               
  E  E  E  E  E  E  E  E     E  E  E  E  E  Q    E     E  E  E  E  E  E  E  E   
--------------------------|-------------------------|--------------------------|
-----1--1--1-----1-----0--|--------1----------------|--------3--0-----------0--|
--------------------------|-----2-----2-----0-------|-----4--------------------|
--------------------------|--2--------2-----2----4--|-----------0-----0--2--4--|
--3-----------3-----2-----|--0--------3--0----------|--2--------0--2-----------|
--------------------------|-------------------------|--------------------------|


                                                                        Da SEGNO
  ^        ^        ^        ^                    ^                             
  E  E  E  E  E  E  E  E     E  E  E  E  E  E  E  E     E  E  E  E  Q    Q      
--------------------------|--------------------------|-------------------------|
--1--------0--------------|--------------------------|-------------------------|
--0-----------------2-----|--2--0--------------------|-------------------7~----|
--2--------4--0-----------|--------0-----4--------0--|--------0-----0----0-----|
-----3--0--5--L--2--3--0--|--0--------------0-----0--|-----------0--0----------|
--------------------------|-----------0--------4-----|--L--0--4----------------|


    ^                                   ^                  ^                        
    E  E  E  E  E  E  E  E     E  E  E  E  E  E   E  E     E  E  E  E  E  E  E  E   
|------------------3-----0--|---------------------------|--------------------------|
|------0-----3--------------|-----1-----1-----1---------|-----------------3-----1--|
|*--0--0-----0-----0-----0--|-----------0------------0--|-----0-----2--------------|
|*--------------------------|-----------------2h--4-----|--4--0-----0-----0-----0--|
|---------------------------|--3-----------3------------|--------------------------|
|---5-----------5-----------|---------------------------|--0-----------0-----------|


                             ^                             ^                     
  E  E  E  E  E  E  E  E     E  E  E  E  E  E  E  E     E  E  E  E  E  E  E  E   
--------------------------|-----------------3-----5--|-----0-----------------3--|
-----0-----0--------------|-----0-----3--------------|-----1-----1--------1-----|
-----0-----------0--------|--0--0-----0-----0-----0--|-----------------0--------|
--------7--------0-----4--|--------------------------|--------------------------|
--------------------5-----|--------------------------|--3-----------3-----------|
--5-----------0-----------|--5-----------5-----------|--------------------------|


1.____________                                          2.____________(Ending)                        
                 ^            ^                                                          
  E  E  E  E  E  E  E  S S    E  E  E  E  E  E  E  E       E  E  E  E  E  E  E  S S  
--2--0-----------2-----3-3-|--3------------------------||--2--0-----------2-----3-3-|
-----------3---------------|---------------------------||-----------3---------------|
---------------------------|-----0-----0-----0-----0--*||---------------------------|
-----0-----0-----0-----0---|--------------------------*||-----0-----0-----0-----0---|
---------------------------|---------------------------||---------------------------|
--0-----------0------------|--5-----------5------------||--0-----------0------------|


  E  E  E  E  E  E  E  E     E  E  E  E  E  E  E  E     E  E  E  E  E  E  E  E   
--3-----------------------|-----------------3-----5--|-----0-----------------3--|
--------------------------|-----0-----3--------------|-----1-----1-----1--1--1--|
-----0-----0-----0-----0--|--0--0-----0-----0-----0--|-----------------0--------|
--------------------------|--------------------------|--------------------------|
--------------------------|--------------------------|--3-----------3-----------|
--5-----------5-----------|--5-----------5-----------|--------------------------|


                            rall......................T:86
  E  E  E  E  E  E  E  S S    E  E  E  E  E  E  E  E     W                   H        H          
--2--0-----------2-----3-3-|--3-----------------------|-------------------|--------------------||
-----------3---------------|--------------------------|-------------------|--------------------||
---------------------------|-----0-----0-----0-----0--|-------------------|--L-----------------||
-----0-----0-----0-----0---|--------------------------|-------------------|--------------------||
---------------------------|--------------------------|-------------------|--------------------||
--0-----------0------------|--5-----------5-----------|--5----------------|--L-----------------||

Legend
---------------
W - whole duration
H - half
Q - quarter
E - 8th
S - 16th
. - note dotted
L - tied note
h - hammer on
p - pull off
~ - vibrato
^ - brush up
Login or Register to remove this ad.