Bearer of Hope (Fire Emblem Radiant Dawn) Guitar Tab

Submitted: Mar 30, 2019 by thunderbulb (Last updated: May 15, 2019)

0
Download | No audio :(
Game: Fire Emblem Radiant Dawn
Style: Alternate picking, Trill
Series: Fire Emblem

AutoScroll: Slow | Medium | Fast
Fire Emblem Radiant Dawn - Bearer of Hope


The positioning on some of this stuff is not optimal but it's a good starting place, very tough to play up to speed.

e|---------------------------1-4-6-3-1~------4-6-5-1-3~----15-13--------------|
B|-1---1-3-4-3-1---1-3-----4-3-4-6-1---------x-x--------15-------16-15~----15~|
G|---0-----------3-----0---5-----------------5-5------------------------15-15~|
D|-----------------------3----------------------------------------------------|
A|-------------------------------------3-5-6----------------------------------|
E|----------------------------------------------------------------------------|

Hold the A# and D for the bass part then join with:

						  x2
e|----------------------10-11-10-----|-------------|
B|-------------------11----------11--|-------------|
G|-------------13-11-----------------|-12-10-------|
D|-13-10-12-13-----------------------|-------13-12-|
A|-----------------------------------|-------------|
E|-----------------------------------|-------------|

if you can't do the trill here just bend to C quickly
e|---------------------------------------------------------------------------|
B|------------------------------------12tr13---------------------------------|
G|-----8----12-10-8-------------11-----------15-13-11------------------------|
D|-------12---------12-10-8--------15-----------------15-13-11---------------|
A|-13~----------------------10~----------------------------------------------|
E|---------------------------------------------------------------------------|

e|-------------------------------------|-13----13-15-16-15-13-11-11-13-15----------15-|
B|-------14-------------11-13-14-11-13-|----13----------------------------13-11-13----|
G|-15-13----11-------------------------|----------------------------------------------|
D|-------------15-13-11-13-15-15-13-15-|----------------------------------------------|
A|-------------------------------------|----------------------------------------------|
E|-------------------------------------|----------------------------------------------|

		  This section repeats a few times

e|---------------|-----------------------------------------------------------|
B|---------9~----|---------------------------2-2-----------------------------|
G|----9-12----12-|-----------------3-------------5-5-3-----------------------|
D|-10------------|---2-5-6-5---2-5---5---5-5-----------5-3-------------------|
A|---------------|-3---------3---------3-------------------------------------|
E|---------------|-----------------------------------------------------------|

e|--------------------------------------8---------9-8-11-9-8----8-----11~----|
B|---------------------------------9-11---11p9--------13-----11---9-9--x-----|
G|------------------------------11-------------11----------------------8~----|
D|---2-5-6-6-6-6-6-6-6-6-6-8-10----------------------------------------------|
A|-3-----7-7-7-7-7-7-7-7-7---------------------------------------------------|
E|---------------------------------------------------------------------------|

e|----------------------------------|------------------------------------13---|
B|----------------------11----------|-------------6-4-11-8-9-15-13-16-15----16|
G|-12-13-12-10-------------13-12-10-|---------5-3-----------------------------|
D|-------------13-12-13-------------|-3-5-2-3---------------------------------|
A|----------------------------------|-----------------------------------------|
E|----------------------------------|-----------------------------------------|

e|-18-16-13-------------------|------------------------------------------------------|
B|----------15-13-------------|------------------------------------------------------|
G|----------------13-10-7-5---|-13-10----------13-12~-10----15-14----------15-14~-12-|
D|--------------------------6-|-------10----10-----------13-------12----12-----------|
A|----------------------------|----------11--------------------------13--------------|
E|----------------------------|------------------------------------------------------|


e|---------------------------------------------------------------------------|
B|-----13----13-14-------14----14-13--11-14-13-11----------------------------|
G|--------------------15--------------------------13-12-12~-10---------------|
D|-15-----15-------13-------15-----------------------------------------------|
A|---------------------------------------------------------------------------|
E|---------------------------------------------------------------------------|

e|---------------------------------------------------------------------------|
B|----------8-9-8---------------------13-11-13-11----------11-13-11~---------|
G|-10----10-------10-8-10-12-------10-------------13-12-13-------------------|
D|-10-10---------------------10-12-10----------------------------------------|
A|---------------------------------------------------------------------------|
E|---------------------------------------------------------------------------|

e|----------------------------13-11-10---------------------------------------|
B|----------------------------14-13-11-11-13-----13-11-9-8---8~--------------|
G|-10-------12-------13--------------------9--12-----------8-----------------|
D|----11-10----11-10----11-10------------------------------------------------|
A|---------------------------------------------------------------------------|
E|---------------------------------------------------------------------------|

e|-------------3-4-3---------------------------------------------------------|
B|-----------4-------4-- then back to start----------------------------------|
G|-------6-4-----------------------------------------------------------------|
D|-3-5-6---------------------------------------------------------------------|
A|---------------------------------------------------------------------------|
E|---------------------------------------------------------------------------|

Massive thanks to this youtube video for helping me work out what was going on in the faster sections: https://www.youtube.com/watch?v=-PJiN5KWk1E
Login or Register to remove this ad.