Ads

Warmth is Gone (Fire Emblem Fates) Guitar Tab

Submitted: Jul 06, 2016 by quinndangle2

5
Average: 5 (3 votes)
Download | Listen
Game: Fire Emblem Fates
Composer(s): Masato Kouda, Hiroki Morishita, Takeru Kanazaki, Yasuhisa Baba, Rei Kondoh
Style: Arrangement, Fingerstyle, Natural harmonics
Series: Fire Emblem

AutoScroll: Slow | Medium | Fast
Warmth is Gone
From Fire Emblem Fates
Composed by Takeru Kanazaki
Tabbed by Brent Quinn

tempo ~ 65
4/4 time

   H     E   E   E   E     H     E   E   E   E     H     E   E   E   E     Q    H     E   E
E|-5-----L---4---7---5---|-----------------------|-9-----L---7---12--10--|-9----------5---4---|
B|-2-----L---------------|-9-----L---7---9---10--|-7-----L---------------|-10---12------------|
G|*2-----L---------------|-6-----L---------------|-6-----L---------------|-9----L-------------|
D|*4-----L---------------|-6-----L---------------|-0-----L---------------|--------------------|
A|-----------------------|-7-----L---------------|-----------------------|--------------------|
E|-----------------------|-----------------------|-----------------------|-9----L-------------|


   H     E   E   E   E     H     Q    Q      E   E   E   E   Q    Q      E   E   E   E   E   E   Q
E|-5-----L---4---7---5---|-4-----5---------|----------------[7]--------|------------------------------|
B|-3-----L---------------|-2----------0----|-2-------0-------0---------|---------0--------------------|
G|-2-----L---------------|-1-----2---------|-0-------2-----------------|-6---------------2-------1----|
D|-----------------------|-2-----4---------|-----0-------0--------4----|---------4-----------3--------|
A|-2-----L---------------|-0---------------|---------------------------|-----5-------5---4------------|
E|-----------------------|-----------------|-3-------------------------|-4----------------------------|

   W        E   E   E   E   E   E   E   E     E   E   E   E   E   E   E   E     E   E   E   E   E   E   E   E
E|--------|-5---------------0---4---7---5---|-4---------------0---2---4---5---|-9-------------------7---12--10--|
B|--------|-2-------------------------------|-2-------------------------------|-7-------------------------------|
G|-L------|-2-------1---2-------------------|-1-------1---2-------------------|-6---------------6---------------|
D|--------|---------------------------------|---------------------------------|-0-------------------------------|
A|--------|-----4---------------------------|-----4---------------------------|-----0---7---9-------------------|
E|--------|-2-------------------------------|-0-------------------------------|---------------------------------|


   E   E   E   E   E   E   E   E     E   E   E   E   E   E   E   E     E   E   E   E   Q    Q
E|-9-------7---------------5---4---|-5-------------------4---7---5---|-4---------------5---------|
B|-10------------------0-----------|-3-------------------------------|-2--------------------0----|
G|-9-------------------------------|-2---------------2---------------|-1-------1-------2---------|
D|-----------------7---------------|-----4-------0-------------------|-----3-------3---4---------|
A|-----0-------7-------------------|-2-------4-----------------------|-0-------------------------|
E|-9-------7-----------------------|---------------------------------|-----------------2---------|


   E   E   E   E   Q    Q      E   E   E   E   E   E   Q      E   E   E   E   E   E   E   E
E|----------------[12]-------|------------------------------|-5-------2-------0---4---7---5---|
B|-2-------0-------0---------|---------0---------------0----|-2-------------------------------|
G|-0-------2-----------------|-6---------------2-------1----|-2-------1---2-------------------|
D|-----0-------0--------4----|---------4-----------3--------|---------------------------------|
A|---------------------------|-----5-------5---4------------|-----4---------------------------|
E|-3-------------------------|-4----------------------------|-2-------------------------------|


   E   E   E   E   E   E   E   E     E   E   E   E   E   E   E   E     E   E   E   E   E   E   E   E
E|-4---------------0---2---4---5---|-9-------------------7---12--10--|-9-------7---------------5---4---|
B|-2-------0-----------------------|-7-------------------------------|-10------------------0-----------|
G|-1-------1---2---1-------1-------|-6---------------6---------------|-9-------------------------------|
D|---------------------------------|-0-------------------------------|-----------------7---------------|
A|-----4---------------------------|-----0---7---9-------------------|-----0-------7-------------------|
E|-0-------------------------------|---------------------------------|-9-------7-----------------------|

   E   E   E   E   E   E   E   E     E   E   E   E   Q    Q      E   E   E   E   Q    Q
E|-5-------------------4---7---5---|-4---------------5---------|----------------[7]--------|
B|-3-------------------------------|-2-------0------------0----|-2-------0-------0---------|
G|-2---------------2---------------|-1-------1-------2---------|-0-------2-----------------|
D|-----4-------0-------------------|-----3-------3---4---------|-----0-------0--------4----|
A|-2-------4-----------------------|-0-------------------------|---------------------------|
E|---------------------------------|---------------------------|-3---------------7---------|


   E   E   E   E   E   E   Q      W        E   E   E   E   E   E   E   E     E   E   E   E   E   E   E   E
E|-------------------------4----|-L------|-9-------7-------10------9---0---|-7-------5---0---9-------7-------|
B|---------0---------------0----|-L------|-------------7-------------------|---------------------7-----------|
G|-6---------------2-------1----|-L------|---------7---------------7-------|---------6-------------------7---|
D|---------4-----------3--------|--------|-----7---------------6-----------|-----6-----------0-------7-------|
A|-----5-------5---4------------|--------|---------------------------------|-0-------------------------------|
E|-4----------------------------|--------|-7---------------0---------------|---------------------------------|

								 |---3---|   |---3---|   |---3---|   |---3---|
   E   E   E   E   E   E   E   E     E   E   Q    E   E   Q      E   E   E   E   E   E   E   E   E   E   E   E
E|-5-------4-------7-------5-------|-4-------2--------0---9----|-9-----------7-----------10----------9-----------|
B|-------------3-----------0---2---|---------2----11------10---|-7-------------------7---9---------------0-------|
G|---------2-----------------------|---------2----9-------9----|-7-----------6---7-------10------------------7---|
D|-----4---------------3-----------|--------------8-------11---|-----0---7-----------------------0---6-----------|
A|-2---------------4---------------|-----4--------7-------9----|-------------------------------------------------|
E|---------------------------------|-2-------------------------|-7-----------------------0---7-------------------|

   |---3---|   |---3---|   					Slow to finish   |---3---|   |---3---|
   E   E   E   E   E   E   Q    Q      Q    Q    Q    Q      H     H       H     E   E   E   E   E   E 
E|-7-----------5-------0---4----2----|-0-------------------|-5-----4-----|-L-----12------10--9-----------|
B|-5-----------------------2---------|-0----3----2----0----|-7-----------|-------12--------------12--10--|
G|-6---------------6-------2---------|-1-------------------|-6-----------|-------10--10------------------|
D|---------6---7-----------0---------|-0----L----4---------|-------------|-------11----------------------|
A|-0---7-----------------------------|-----------2---------|-4-----------|-------------------------------|
E|-----------------------------------|-4----L----4---------|-------------|-------------------------------|

   |---3---|
   E   E   E   Q    H       W
E|------------------------|--------|
B|------------------------|--------|
G|-10--9------------------|-------*| repeat ad infinitum
D|---------12--11---------|-------*|
A|------------------------|--------|
E|------------------9-----|-L------|



Login or Register to remove this ad.

1 comment on Warmth is Gone

This is really pretty =)

5

This is really pretty =)