Ads

Road Taken (Roar) (Fire Emblem Fates) Guitar Tab

Submitted: Jul 14, 2018 by Ranulf (Last updated: Jul 14, 2018)

5
Average: 5 (1 vote)
Download | Listen
Game: Fire Emblem Fates
Composer(s): Masato Kouda, Hiroki Morishita, Takeru Kanazaki, Yasuhisa Baba, Rei Kondoh
Style: Transcription
Series: Fire Emblem

AutoScroll: Slow | Medium | Fast
Road Taken (Roar)
Fire Emblem: Fates
Nintendo 3DS
Composer(s): Hiroki Morishita, Takeru Kanazaki, Yasuhisa Baba, Rei Kondoh, Masato Kouda
Tabbed by Ranulf
4/21/2018

E||--------------------------------------------------------------------------------------------------------------------10--8--|
B||--------------------------------------------------------------6--8---------------------------------6--8--10--11--8---------|
G||*--10--7------7--7--5-----5--10--7--7--10--10--------7--7--5--------7-------7--5----------7--7--5--------------------------|
D||*----------10---------7-8----------------------5--5----------------------5----------5--5-----------------------------------|
A||---------9-----------------------------------------------------------------------------------------------------------------|
E||---------------------------------------------------------------------------------------------------------------------------|

|--5--6--13--8--10-----5--6--13--8--6-----5--6--13--8--10-----10--13--11--10--8-----5--6--13--8--10-----5--6--13--8--6-----5--6--13--8--10-|
|------------------------------------------------------------------------------------------------------------------------------------------|
|------------------------------------------------------------------------------------------------------------------------------------------|
|------------------------------------------------------------------------------------------------------------------------------------------|
|------------------------------------------------------------------------------------------------------------------------------------------|
|------------------------------------------------------------------------------------------------------------------------------------------|

|--13--18--18--17--15--------------------------------------------------------------------------------------|
|-------------------------------------------------------------------------------------------------6--------|
|----------------------------5--7-----7-----7--8--7--5-----5--3-----3--5--7-----7-----7--8--7--5-----5-----|
|----------------------7--8--------5-----5--------------3--------7-----------5-----5--------------------8--|
|----------------------------------------------------------------------------------------------------------|
|----------------------------------------------------------------------------------------------------------|

|--------------------------------------------------------------------------------------|
|-----------------------------------------------------------------------------6--------|
|--------5--7-----7-----7--8--7--5-----5--3-----3--5--7-----7-----7--8--7--5-----5-----|
|--7--8--------5-----5--------------3--------7-----------5-----5--------------------8--|
|--------------------------------------------------------------------------------------|
|--------------------------------------------------------------------------------------|

|------------------------------------------------------------------------------------------------------------------------|
|-----------------------------------------------------------------------------------------------------------------10-----|
|--5--------10----------14--10-----5--------8---------12--8-----8--------11----------15--11-----7------12--7----------7--|
|-----7--8------10--12----------------7--8-----8--10---------------8--9------11--13----------------10---------10---------|
|------------------------------------------------------------------------------------------------------------------------|
|------------------------------------------------------------------------------------------------------------------------|


REPEAT STANZA 2 THROUGH 4, THEN:

|--10-----10------||
|------8------8---||
|----------------*||
|----------------*||
|-----------------||
|-----------------||
Login or Register to remove this ad.