Lost in Thoughts All Alone (Fire Emblem Fates) Guitar Tab

Submitted: Mar 30, 2016 by PeanutReaper486

4.5
Average: 4.5 (2 votes)
Download | Listen
Game: Fire Emblem Fates
Composer(s): Masato Kouda, Hiroki Morishita, Takeru Kanazaki, Yasuhisa Baba, Rei Kondoh
Style: Transcription
Series: Fire Emblem

AutoScroll: Slow | Medium | Fast
Lost in Thoughts All Alone
Fire Emblem Fates
Nintendo 3DS
Tabbed by PNUT
Composed by Hiroki Morishita
3/24/16

E|-------------------------------------------------------------------------------------
B|--------4--5v-----------4--5v-----------4--5v-----------4--5v-----------4--5v--------
G|-------------------------------------------------------------------------------------
D|-----6---------------6---------------6---------------6---------------6---------------
A|--4---------------4---------------4---------------4---------------4------------------
E|------------------------------------------------------------------------------------- (Repeats in background for a bit.)

E|--------7-----------7---------------------------2------------------------------------
B|--9--7-----9-----7-----9-----7--5--4--2v-----0-----2-----0--2-----2--9--7--9---------
G|-------------------------------------------------------------------------------------
D|-------------------------------------------------------------------------------------
A|-------------------------------------------------------------------------------------
E|-------------------------------------------------------------------------------------

E|--------7-----------7---------------------------2-----------4------------------------
B|--9--7-----9-----7-----9-----7--5--4--2v-----0-----2-----0-----2v--------------------
G|-------------------------------------------------------------------------------------
D|-------------------------------------------------------------------------------------
A|-------------------------------------------------------------------------------------
E|-------------------------------------------------------------------------------------


E|-----9-------------------------------------------------------------------------------
B|--9-----12--9v-----9--11--12--11--9--------------9--10--9----------------------------
G|-------------------------------------11v-----11------------11--9--11--8--------------
D|-------------------------------------------------------------------------------------
A|-------------------------------------------------------------------------------------
E|-------------------------------------------------------------------------------------


E|-------------------------------------------------------------------------------------
B|----------------------------------------------9--9--------9~-------------------------
G|--6--8--6v----6--8--6v----4--6--8--6v---4--6----------11-----------------------------
D|-------------------------------------------------------------------------------------
A|-------------------------------------------------------------------------------------
E|-------------------------------------------------------------------------------------


E|---------9------------9-------------------------------4------------------------------
B|--11--9-----11-----9-----11--------9--7--6--4v-----2-----4-----2--4----4--11--9--11--
G|--------------------------------8----------------------------------------------------
D|-------------------------------------------------------------------------------------
A|-------------------------------------------------------------------------------------
E|-------------------------------------------------------------------------------------

E|---------9------------9----------------------------4-----------6---------------------
B|--11--9-----11-----9-----11-----9--7--6--4v-----2-----4-----2-----4------------------
G|-------------------------------------------------------------------------------------
D|-------------------------------------------------------------------------------------
A|-------------------------------------------------------------------------------------
E|------------------------------------------------------------------------------------- ↑ Repeat.
Login or Register to remove this ad.