Conquest (Fire Emblem Awakening) Guitar Tab

Submitted: Jun 09, 2015 by PeanutReaper486 (Last updated: Jun 10, 2015)

0
Download | Listen
Game: Fire Emblem Awakening
Composer(s): Yuka Tsujiyoko, Rei Kondo, Hiroki Morishita
Style: Transcription
Series: Fire Emblem

Click here for a video example.

AutoScroll: Slow | Medium | Fast
Conquest
Fire Emblem: Awakening
Nintendo 3DS
Tabbed by PNUT
Composed by Hiroki Morishita,Rei Kondoh, and Yuka Tsujiyoko
6/8/2015




E|-----------------------------------
B|-----------------------------------
G|--12--12-10--8h10h12--12-10--8h10--
D|-----------------------------------
A|-----------------------------------
E|----------------------------------- x8



E|----------------------------------------------------------------------------------------------------------
B|----------------------------------------------------------------------------------------------------------
G|-------------------------------------------12---------------------------------------------------------15--
D|------12--13--15--10h12--------12--13--15--------15p13p12--------12--13--15--10h12--------12--13--15------
A|--10-----------------------10--------------------------------10-----------------------10------------------
E|---------------------------------------------------------------------------------------------------------- x2



E|-----------------------------------------------------------------------------------------------------------
B|------------------------------------------18--15----16--18----------------16v------------------------------
G|--------15--17--------------------15--17--------------------15v----17v-----------13----17----------15--17--
D|--15------------17----------15---------------------------------------------------------------15------------
A|----------------------18-----------------------------------------------------------------------------------
E|-----------------------------------------------------------------------------------------------------------



E|-----------------------------------------------------------18v--16--15----------------------
B|------16--20--20-------------------18--------------16--20-------------------15--16--18--18--
G|--15--------------17--17v--19--20------20--19--15-----------------------17------------------
D|--------------------------------------------------------------------------------------------
A|--------------------------------------------------------------------------------------------
E|--------------------------------------------------------------------------------------------



E|--------------------------------------------------------------14--12--11----------------------
B|------12--16--16v---------------------14--------------12--16------------------11--12--14--12--
G|--11---------------13--13v--15--16--------16--15--11----------------------13------------------
D|----------------------------------------------------------------------------------------------
A|----------------------------------------------------------------------------------------------
E|----------------------------------------------------------------------------------------------


===========================================================================================================

For Ablazed's intro, play this instead of the first stave.

E|-----------------------------------------------------------------
B|-----------------------------------------------------------------
G|--------------------------10--------------------------10---------
D|-----10-----12-----13------------10-----12-----13---------13p12--
A|--8------8------8------8------8------8------8------8-------------
E|-----------------------------------------------------------------

Chords behind Ablazed's intro.

E|------------------------------------------------------------------------
B|------------------------------------------------------------------------
G|--8----8----------------12----12--------8--------12----12--------8------
D|--6----6----------------10----10--------6--------10----10--------6------
A|--6----6----------------10----10--------6--------10----10--------6------
E|--4----4----------------8-----8---------4--------8-----8---------4------

Thanks to Mochtroid127 for inspiration to make the tab, check out his cover in the video example above
Login or Register to remove this ad.