Shop (Final Fantasy) Guitar Tab

Submitted: May 16, 2012 by Crazymoogle

4.5
Average: 4.5 (4 votes)
Download | Listen
Game: Final Fantasy
Composer(s): Nobuo Uematsu
Style: Arrangement, Fingerstyle
Series: Final Fantasy

AutoScroll: Slow | Medium | Fast
Final Fantasy I ~ Shop Theme
Composed by: Nobuo Uematsu   Arranged by: Nobuo Uematsu and Tsuyoshi Sekito
Tabbed by:  Logan Graham      5/15/2012

It would seem that this tab is quite difficult, at least that I sometimes have trouble playing
it at full speed, but I can assure you that it is playable. So have no fear, and practice! 

:)

Capo 3

     H     Q     H     Q     H           H     Q     Q  Q  Q     Q  Q  Q     H     Q
e||--0--------|--0-----2--|--0-----L--|-----------|--0--5--4--|--7--5--2--|--0-----1--|
B||--------4--|-----------|-----------|--2-----3--|-----------|-----------|-----------|
G||-----------|-----------|-----------|-----------|-----------|-----------|-----------|
D||-----2--2--|-----2--2--|-----2--2--|-----2--2--|-----2--2--|-----4--4--|-----2--2--|
A||--0--------|--0--------|--0--------|--0--------|--0--------|--0--------|--0--------|
E||-----------|-----------|-----------|-----------|-----------|-----------|-----------|

     H     Q     H                             Q     H     Q     H         
e||--2--------|-----------|-----------|-----------|--0--------|-----------|-----------|
B||--------2--|--3-----L--|-----------|--------4--|--------0--|--2-----L--|-----------|
G||-----------|-----------|-----0--0--|----1---1--|-----------|-----------|-----------|
D||-----------|-----4--4--|-----------|-----------|-----2--2--|-----2--2--|-----2--2--|
A||-----4--4--|--2--------|--2--------|--2--------|-----------|--0--------|-----------|
E||--2--------|-----------|-----------|-----------|--0--------|-----------|--3--------|

           Q     H     Q     Q  Q  Q     Q  Q  Q     Q  Q  Q     Q  Q  Q     Q  Q  Q
e||--------1--|--2--------|-----------|-----4--2--|-----------|-----5--4--|--2--4--5--|
B||-----------|--------2--|--3--0--2--|--4--------|--5--4--5--|--6--------|-----------|
G||-----------|-----------|-----------|-----------|-----------|-----------|-----------|
D||-----------|-----------|-----4--4--|-----4--4--|-----6--6--|-----3--3--|--0--7--7--|
A||-----4--4--|-----4--4--|--2--------|--3--------|--4--------|--4--------|-----------|
E||--2--------|--2--------|-----------|-----------|-----------|-----------|-----------|

     Q  Q  Q     Q  Q  Q     H           Q  Q  Q     Q  Q  Q     Q  Q  Q     Q  Q  Q
e||--7--5-----|--0--5--9--|--7-----L--|--4-----4--|--2-----2--|--0-----0--|-----------||
B||--------6--|-----------|-----------|-----5-----|-----3-----|-----2-----|--3-----3--||
G||-----------|-----------|-----------|--4--------|--2--------|--1--------|-----4-----||
D||--0--7--7--|-----------|-----------|-----------|-----------|-----------|--2--------||
A||-----------|--0--2--4--|--7-----L--|-----------|-----------|-----------|-----------||
E||-----------|-----------|-----------|-----------|-----------|-----------|--0--2--4--||

And although the game plays it for eternity, I doubt that you will want to, so finish it
off with a C chord.
   
e||-5-|
B||-5-|
G||-6-|
D||-7-|
A||-7-|
E||-5-|
Login or Register to remove this ad.

1 comment on Shop

Nice

sounds just like it