Matoya's Cave (Final Fantasy) Guitar Tab

Submitted: Jul 06, 2009 by Orusaka (Last updated: Feb 04, 2010)

4.666665
Average: 4.7 (6 votes)
Download | Listen
Game: Final Fantasy
Composer(s): Nobuo Uematsu
Style: Arrangement, Fingerstyle
Series: Final Fantasy

AutoScroll: Slow | Medium | Fast
               Matoya's Cave
               Final Fantasy                 
               Nobue Uematsu
               Arranged By: Anders "Orusaka" Olsaker
               2009.07.07

Guitar Solo



     E  E  E  E  Q    E  E   
E||--------2-----3----2--0--|
B||--0--3-----0-------------|
G||-------------------------|
D||--------------2----------|
A||--2----------------------|
D||--------------2----------|


  Q    E  E  Q    Q     
-------0---------------|
--3-------3--2---------|
--0----------2----0----|
-----------------------|
-------------0---------|
--5---------------5----|


  E  E  E  E  Q    E  E   
-----2--5-----7----5--3--|
--3--------3-------------|
--------------0----------|
--0----------------------|
-------------------------|
--------------5----------|


  Q    E  E  Q    E  E   
--2----3--2--0----2--3--|
--0---------------------|
-------------2----------|
------------------------|
--2----------0----4-----|
------------------------|


  E  E  E  E  E  E  E  E   
--5-----------------------|
--------------2-----5-----|
--------4-----------4-----|
-----4-----4-----4-----4--|
--2-----------2-----------|
--------------------------|


  |---3---|                    
  E   E   E  Q    E  E  E  E   
------------------------3--5--|
--3p--2h--3-------------------|
-------------4----------4-----|
-------------4-------4-----4--|
--2---------------2-----------|
------------------------------|


  E  E  E  E  E  E  E  E   
--7-----------------------|
--------------------8-----|
--------0-----7-----0-----|
-----0-----0-----0-----0--|
--------------------------|
--5-----------5-----------|


  |---3---|                   
  E   E   E  Q    Q    E  E   
-------------0---------5--7--|
--7h--8p--7------------------|
-----------------------------|
-----------------------7-----|
--0---------------L----------|
-----------------------------|


  E   E   E   E  E   E   E  E   
--9--------------L----------9--|
--------------------10--12-----|
---------11--------------------|
-----11------11----------------|
--9--------------9-------------|
-------------------------------|


   S   S  S   S  Q    E   E   E   E   
--12p-10p-9h-10----------------------|
----------------12-------10----------|
-----------------------------12--11--|
------------------------------9------|
-----------------9----------------9--|
---9------------------9--------------|


  E  E  E  E  E  E  E  E   
--0-----------L--------0--|
-----------------1--3-----|
--------0-----------------|
-----2-----2--------------|
--3-----------3-----------|
--------------------------|


  E  E  E  E  E  E  E  E   
--------------------------|
--3-----------2-----------|
-----2-----2-----2-----2--|
--------------------------|
--0-----0-----0-----0-----|
--------------------------|


  E  E  E  E  E  E  E  E   
--------------------------|
--3-----------------------|
--------------0-----------|
--4-----0-----------0-----|
-----0-----0-----2-----2--|
--------------------------|


  E  E  E  E  E  E  S  S  S  S  
-------------------------------|
--------------------3p-2p-0h-2-|
--2--------2--0----------------|
--------0----------------------|
-----4-----------2-------------|
-------------------------------|


  E  E  E  E  E  E  E  E   
--------------------------|
--3-----------------------|
--------------0-----------|
--4-----0-----------0-----|
-----0-----0-----2-----2--|
--------------------------|


  E  E  E  E  E  E  S  S S S  
--------------------2p-0---0-|
-------------------------3---|
--2--------2--0--------------|
--------0--------------------|
-----4-----------2-----------|
-----------------------------|


  E  E  E  E  E  E  E  E   
--2-----------------------|
--------------------------|
--------------0-----------|
--0-----0-----------0-----|
-----0-----0-----2-----2--|
--------------------------|


  E  E  E  E  E  E  S  S  S  S  
--------------------5p-3p-2h-3-|
-------------------------------|
--2--------2--0----------------|
--------0----------------------|
-----4-----------2-------------|
-------------------------------|


  E  E  Q    E  E  Q     
--5----------3----------|
--7----------------3----|
--------7---------------|
------------------------|
-----0----------2-------|
--0----------0----------|


  E  E  E  E  S  S S  S S S  S S    
--5--------5--2p-0------0---------||
--------3----------3p-2---3p-2----||
-------------------------------3-*||
---------------------------------*||
--L--4----------------------------||
--------------4---------4---------||


  W                  
-------------------||
--0----------------||
-------------------||
--0----------------||
--2----------------||
-------------------||




Duration Legend
---------------
W - whole
H - half
Q - quarter
E - 8th
S - 16th
T - 32nd
X - 64th
. - note dotted
|-n-|  - n-tuplets


Tablature Legend
----------------
L - tied note
x - dead note
g - grace note
(n) - ghost note
> - accentuded note
NH - natural harmonic
AH - artificial harmonic
TH - tapped harmonic
SH - semi harmonic
PH - pitch harmonic
h - hammer on
p - pull off
b - bend
br - bendRelease
pb - preBend
pbr - preBendRelease
brb - bendReleaseBend
\n/ - tremolo bar dip
\n - tremolo bar dive
-/n - tremolo bar Release up
/n\ - tremolo bar inverted dip
/n - tremolo bar return
-\n - tremolo bar Release down
S - shift slide
s - legato slide
/ -  slide into from below or out of upwards
\ -  slide into from above or out of downwards
~ - vibrato
W - wide vibrato
tr - trill
TP - tremolo picking
T - tapping
S - slap
P - pop
< - fade in
^ - brush up
v - brush down
Login or Register to remove this ad.

3 comments on Matoya's Cave

Great tab, thanks!

Great tab, thanks!

asfdf

3

It sounds weird in some places, or is it just me?

That's not a very specific or

That's not a very specific or useful criticism. What part sounds weird? What notes do you think it should be instead? Are you using the correct tuning?