Gurgu Volcano (Final Fantasy) Bass/Guitar Tab

Submitted: Dec 14, 2014 by hashel

0
Download | Listen
Game: Final Fantasy
Composer(s): Nobuo Uematsu
Style: 2 or more instruments, Arrangement
Series: Final Fantasy

Click here for a video example.

AutoScroll: Slow | Medium | Fast
Gurgu Volcano (Hashel05 version)
Final Fantasy I
Tempo = 135
Please download the GP5 file for all the tracks :)

MELODY


E |----------------|----------------|----------------|----------------|
B |----------------|----------------|----------------|----------------|
G |----------------|----------------|----------------|----------------| X9
D |----------------|----------------|----------------|----------------|
A |----------------|----------------|----------------|----------------|
E |----------------|----------------|----------------|----------------|


----------------------------|----------------------------|
----------------------------|-----------------8L-8--8----|
--7--7--10-7-----9L-9--7L---|--7--7--10-7--9-------------|
--------------10------------|----------------------------|
----------------------------|----------------------------|
----------------------------|----------------------------|


----------------------------|----------------------------|----------------|
----------------------------|-----------------8L-8--8----|----------------|
--7--7--10-7-----9L-9--7L---|--7--7--10-7--9-------------|----------------|
--------------10------------|----------------------------|----------------|
----------------------------|----------------------------|----------------|
----------------------------|----------------------------|----------------|


----------------|----------------|----------------|----------------------------|
----------------|----------------|----------------|----------------------------|
----------------|----------------|----------------|--7--7--10-7-----9L-9--7L---|
----------------|----------------|----------------|--------------10------------|
----------------|----------------|----------------|----------------------------|
----------------|----------------|----------------|----------------------------|


----------------------------|----------------------------|
-----------------8L-8--8----|----------------------------|
--7--7--10-7--9-------------|--7--7--10-7-----9L-9--7L---|
----------------------------|--------------10------------|
----------------------------|----------------------------|
----------------------------|----------------------------|


----------------------------|--------------10L-----------|
-----------------8L-8--8----|--------6--10---------------|
--7--7--10-7--9-------------|--6--7----------------------|
----------------------------|----------------------------|
----------------------------|----------------------------|
----------------------------|----------------------------|


--10------------------------------------------------------------------------|
-----------------------------------------------12h13h12----------12---------|
--------------------------------------------------------14------------------|
----------------------------------------------------------------------------|
----------------------------------------------------------------------------|
----------------------------------------------------------------------------|


----------------------------|-------|--------------10L-----------|
--13-12---------------------|-------|--------6--10---------------|
--------14-12----12-14------|-------|--6--7----------------------|
--------------15-------15---|--12---|----------------------------|
----------------------------|-------|----------------------------|
----------------------------|-------|----------------------------|


--10------------------------------------------------------------------------|
-----------------------------------------------12h13h12----------12---------|
--------------------------------------------------------14------------------|
----------------------------------------------------------------------------|
----------------------------------------------------------------------------|
----------------------------------------------------------------------------|


--------------12-13-12------|-------|----------------------------|
--13-------------------13---|--15---|--13----------12-13-12------|
-----14----14---------------|-------|-----14----14----------14---|
--------15------------------|-------|--------15------------------|
----------------------------|-------|----------------------------|
----------------------------|-------|----------------------------|


----------------------------------------------------|
--12----------------12-12-12----------------12-12---|
----------------------------------------------------|
----------------------------------------------------|
----------------------------------------------------|
----------------------------------------------------|


----------------------------|
--13----------12-13-12------|
-----14----14----------14---|
--------15------------------|
----------------------------|
----------------------------|


----------------------------------------------------|
--15----------------15-15-15----------------15-15---|
----------------------------------------------------|
----------------------------------------------------|
----------------------------------------------------|
----------------------------------------------------|


--11----------10-11-10------|
-----13----13----------13---|
--------13------------------|
----------------------------|
----------------------------|
----------------------------|


----------------------------------------------------|
--11----------------11-11-11----------------11-11---|
----------------------------------------------------|
----------------------------------------------------|
----------------------------------------------------|
----------------------------------------------------|


--11----------10-11-10------|
-----13----13----------13---|
--------13------------------|
----------------------------|
----------------------------|
----------------------------|


--13----------------13-13-13----------------13-13---|
----------------------------------------------------|
----------------------------------------------------|
----------------------------------------------------|
----------------------------------------------------|
----------------------------------------------------|


----------------------------|----------------------------|
----------------------------|-----------------8L-8--8----|
--7--7--10-7-----9L-9--7L---|--7--7--10-7--9-------------|
--------------10------------|----------------------------|
----------------------------|----------------------------|
----------------------------|----------------------------|


----------------------------|----------------------------|----|----|----|----|
----------------------------|-----------------8L-8--8----|----|----|----|----|
--7--7--10-7-----9L-9--7L---|--7--7--10-7--9-------------|----|----|----|----|
--------------10------------|----------------------------|----|----|----|----|
----------------------------|----------------------------|----|----|----|----|
----------------------------|----------------------------|----|----|----|----|


----|----|----|----|----|----|----|----|----|----|----|----|----------------|
----|----|----|----|----|----|----|----|----|----|----|----|----------------|
----|----|----|----|----|----|----|----|----|----|----|----|----------------|
----|----|----|----|----|----|----|----|----|----|----|----|----------------|
----|----|----|----|----|----|----|----|----|----|----|----|----------------|
----|----|----|----|----|----|----|----|----|----|----|----|----------------|


----------------|----------------|----------------|----------------|
----------------|----------------|----------------|----------------|
----------------|----------------|----------------|----------------|
----------------|----------------|----------------|----------------|
----------------|----------------|----------------|----------------|
----------------|----------------|----------------|----------------|


----------------|----------------|----------------|----------------|
----------------|----------------|----------------|----------------|
----------------|----------------|----------------|----------------|
----------------|----------------|----------------|----------------|
----------------|----------------|----------------|----------------|
----------------|----------------|----------------|----------------|


----------------|----------------|----------------|----------------|
----------------|----------------|----------------|----------------|
----------------|----------------|----------------|----------------|
----------------|----------------|----------------|----------------|
----------------|----------------|----------------|----------------|
----------------|----------------|----------------|----------------|


----------------|----------------|----------------|----------------|
----------------|----------------|----------------|----------------|
----------------|----------------|----------------|----------------|
----------------|----------------|----------------|----------------|
----------------|----------------|----------------|----------------|
----------------|----------------|----------------|----------------|


----------------|----------------|----------------|----------------|
----------------|----------------|----------------|----------------|
----------------|----------------|----------------|----------------|
----------------|----------------|----------------|----------------|
----------------|----------------|----------------|----------------|
----------------|----------------|----------------|----------------|


----------------|----------------|----------------|----------------|
----------------|----------------|----------------|----------------|
----------------|----------------|----------------|----------------|
----------------|----------------|----------------|----------------|
----------------|----------------|----------------|----------------|
----------------|----------------|----------------|----------------|


----------------|----------------|----------------|----------------|
----------------|----------------|----------------|----------------|
----------------|----------------|----------------|----------------|
----------------|----------------|----------------|----------------|
----------------|----------------|----------------|----------------|
----------------|----------------|----------------|----------------|


----------------|----------------|----------------|----------------|
----------------|----------------|----------------|----------------|
----------------|----------------|----------------|----------------|
----------------|----------------|----------------|----------------|
----------------|----------------|----------------|----------------|
----------------|----------------|----------------|----------------|


----------------------------|----------------------------|
----------------------------|-----------------8L-8--8----|
--7--7--10-7-----9L-9--7L---|--7--7--10-7--9-------------|
--------------10------------|----------------------------|
----------------------------|----------------------------|
----------------------------|----------------------------|


----------------------------|----------------------------|----|----|----|----|
----------------------------|-----------------8L-8--8----|----|----|----|----|
--7--7--10-7-----9L-9--7L---|--7--7--10-7--9-------------|----|----|----|----|
--------------10------------|----------------------------|----|----|----|----|
----------------------------|----------------------------|----|----|----|----|
----------------------------|----------------------------|----|----|----|----|


----------------------------------------------------|
----------------------------------------------------|
--7-----7--7--10----7-----------7-----------7-------|
--------------------------10------------------------|
----------------------------------------------------|
----------------------------------------------------|


----------------------------|
--------------9-----8~------|
-----7h-10-7----------------|
----------------------------|
----------------------------|
----------------------------|


----------------------------------------------------|
----------------------------------------------------|
--7-----7--7--10----7-----------7-----------7-------|
--------------------------10------------------------|
----------------------------------------------------|
----------------------------------------------------|


----------------------------|----------------|----------------|----------------|
----------------------------|----------------|----------------|----------------|
-----7h-10-7----------------|----------------|----------------|----------------|
--------------10------------|----------------|----------------|----------------|
----------------------------|----------------|----------------|----------------|
----------------------------|----------------|----------------|----------------|


----------------|----------------|----------------|----------------|
----------------|----------------|----------------|----------------|
----------------|----------------|----------------|----------------|
----------------|----------------|----------------|----------------|
----------------|----------------|----------------|----------------|
----------------|----------------|----------------|----------------|


----------------|----------------------------|----------------------------|
----------------|----------------------------|-----------------8L-8--8----|
----------------|--7--7--10-7-----9L-9--7L---|--7--7--10-7--9-------------|
----------------|--------------10------------|----------------------------|
----------------|----------------------------|----------------------------|
----------------|----------------------------|----------------------------|


----------------------------|----------------------------|
----------------------------|-----------------8L-8--8----|
--7--7--10-7-----9L-9--7L---|--7--7--10-7--9-------------|
--------------10------------|----------------------------|
----------------------------|----------------------------|
----------------------------|----------------------------|


----------------------------|----------------||
----------------------------|----------------||
--7--7--10-7-----9L-9--7L---|--7-------------||
--------------10------------|----------------||
----------------------------|----------------||
----------------------------|----------------||


RHYTHM


                                                                       
E |----------------|----------------|----------------|----------------|
B |----------------|----------------|----------------|----------------|
G |----------------|----------------|----------------|----------------|
D |----------------|----------------|----------------|----------------|
A |----------------|----------------|----------------|----------------|
E |----------------|----------------|----------------|----------------|

                                                                    
----------------|----------------|----------------|----------------|
----------------|----------------|----------------|----------------|
----------------|----------------|----------------|----------------|
----------------|----------------|----------------|----------------|
----------------|----------------|----------------|----------------|
----------------|----------------|----------------|----------------|

                                                                           
----------------|----------------------------|----------------------------|
----------------|----------------------------|----------------------------|
----------------|----------------------------|----------------------------|
----------------|--7--7----------------------|--7--7----------------------|
----------------|--5--5----------------------|--5--5----------------------|
----------------|----------------------------|----------------------------|

                                                                           
----------------------------|----------------|----------------------------|
----------------------------|----------------|----------------------------|
----------------------------|----------------|----------------------------|
--7--7-----------5-----7----|----------------|--7--7-----------5-----7----|
--5--5-----------3-----5----|----------------|--5--5-----------3-----5----|
----------------------------|----------------|----------------------------|

                                                               
----------------|----------------------------|----------------|
----------------|----------------------------|----------------|
----------------|----------------------------|----------------|
----------------|--7--7-----------5-----7----|----------------|
----------------|--5--5-----------3-----5----|----------------|
----------------|----------------------------|----------------|

                                                                     
----------------------------|----------|----------------------------|
----------------------------|----------|----------------------------|
----------------------------|----------|----------------------------|
--7--7-----------5-----7----|-----10s--|--7--7-----------5-----7----|
--5--5-----------3-----5----|-----8s---|--5--5-----------3-----5----|
----------------------------|----------|----------------------------|

                                                               
----------------|----------------------------|----------------|
----------------|----------------------------|----------------|
----------------|----------------------------|----------------|
----------------|--7--7-----------5-----7----|----------------|
----------------|--5--5-----------3-----5----|----------------|
----------------|----------------------------|----------------|

                                                                           
----------------------------|----------------|----------------------------|
----------------------------|----------------|----------------------------|
----------------------------|----------------|----------------------------|
--7--7-----------5-----7----|----------------|--7--7-----------5-----7----|
--5--5-----------3-----5----|----------------|--5--5-----------3-----5----|
----------------------------|----------------|----------------------------|

                                                                     
----------|----------------------------|----------------------------|
----------|----------------------------|----------------------------|
----------|----------------------------|----------------------------|
-----10s--|----------------------------|--------5-------------------|
-----8s---|--5--5--8--5L-------5~------|--5--5-----5L-------5~------|
----------|----------------------------|----------------------------|

                                                          
----------------------------|----------------------------|
----------------------------|----------------------------|
----------------------------|----------------------------|
--------7-------------------|--------5--5L-------5~------|
--5--5-----5L-------5~------|--5--5----------------------|
----------------------------|----------------------------|

                                                     
----------------------------------------------------|
----------------------------------------------------|
----------------------------------------------------|
----------------------------------------------------|
--5-----5-----8-----5--5-----5--5-----8-----8-------|
----------------------------------------------------|

                                                     
----------------------------------------------------|
----------------------------------------------------|
----------------------------------------------------|
----------------------------------------------------|
--5-----5-----8-----5--5-----5--5-----8-------------|
----------------------------------------------------|

                                                     
----------------------------------------------------|
----------------------------------------------------|
----------------------------------------------------|
----------------------------------------------------|
--5-----5-----8-----5--5-----5--5-----8-----8-------|
----------------------------------------------------|

                                                       W
----------------------------------------------------|----------------|
----------------------------------------------------|----------------|
----------------------------------------------------|----------------|
--------------------------------------5L------------|--5-------------|
--5-----5-----8-----5--5-----5--5-------------------|----------------|
----------------------------------------------------|----------------|


----------------------------|----------------------------|
----------------------------|----------------------------|
----------------------------|----------------------------|
--7--7-----------5-----7----|-----------------10---------|
--5--5-----------3-----5----|-----------------8----------|
----------------------------|----------------------------|


----------------------------|----------------------------|
----------------------------|----------------------------|
----------------------------|----------------------------|
--7--7-----------5-----7----|--7--------------10---------|
--5--5-----------3-----5----|--5--------------8----------|
----------------------------|----------------------------|


----------------------------|----------------------------|
----------------------------|----------------------------|
----------------------------|----------------------------|
--7--7-----------5-----7----|-----------------10---------|
--5--5-----------3-----5----|-----------------8----------|
----------------------------|----------------------------|


----------------------------|----------------------------|
----------------------------|----------------------------|
----------------------------|----------------------------|
--7--7-----------5-----7----|--7--------------10---------|
--5--5-----------3-----5----|--5--------------8----------|
----------------------------|----------------------------|


----------------------------|----------------------------|
----------------------------|----------------------------|
----------------------------|----------------------------|
--7--7-----------5-----7----|-----------------10---------|
--5--5-----------3-----5----|-----------------8----------|
----------------------------|----------------------------|


----------------------------|----------------------------|
----------------------------|----------------------------|
----------------------------|----------------------------|
--7--7-----------5-----7----|--7--------------10---------|
--5--5-----------3-----5----|--5--------------8----------|
----------------------------|----------------------------|


----------------------------|----------------------------|
----------------------------|----------------------------|
----------------------------|----------------------------|
----------------------------|----------------------------|
----------------------------|--2L----------2--------2M---|
--5L----------5--1M-3M-5M---|-----------------3M-5M------|


----------------------------|----------------------------|
----------------------------|----------------------------|
----------------------------|----------------------------|
----------------------------|----------------------------|
--3-----------------2M-3M---|--2L----------2--------2M---|
-----------------5M---------|-----------------3M-5M------|


----------------------------|----------------------------|
----------------------------|----------------------------|
----------------------------|----------------------------|
----------------------------|----------------------------|
----------------------------|--2L----------2--------2M---|
--5L----------5--1M-3M-5M---|-----------------3M-5M------|


----------------------------|----------------------------|----------------|
----------------------------|----------------------------|----------------|
----------------------------|----------------------------|----------------|
----------------------------|----------------------------|--3.------------|
--3L----------3-----2M-3M---|--2L----------2--------2M---|-----3.----3.---|
-----------------5M---------|-----------------3M-5M------|--------5.------|


----------------------------|----------------|----------------------------|
----------------------------|----------------|----------------------------|
----------------------------|----------------|----------------------------|
--3-----3-----3-----3-------|--3.------------|--3-----3-----3-----3-------|
-----5-----5-----5-----5----|-----3.----3.---|-----5-----5-----5-----5----|
----------------------------|--------5.------|----------------------------|


----------------|----------------------------|----------------|
----------------|----------------------------|----------------|
----------------|----------------------------|----------------|
--6.------------|--6--3--6--3--6--3--6--3----|--6.------------|
-----6.-3.-6.---|----------------------------|-----6.-3.-6.---|
----------------|----------------------------|----------------|


----------------------------|----------------------------|
----------------------------|----------------------------|
----------------------------|----------------------------|
--6--3--6--3--6--3--6--3----|--7--7-----------5-----7----|
----------------------------|--5--5-----------3-----5----|
----------------------------|----------------------------|


----------------------------|----------------------------|
----------------------------|----------------------------|
----------------------------|----------------------------|
-----------------10---------|--7--7-----------5-----7----|
-----------------8----------|--5--5-----------3-----5----|
----------------------------|----------------------------|


----------------------------|----|----|----|----|----|----|----|----|----|----|
----------------------------|----|----|----|----|----|----|----|----|----|----|
----------------------------|----|----|----|----|----|----|----|----|----|----|
--7--------------10---------|----|----|----|----|----|----|----|----|----|----|
--5--------------8----------|----|----|----|----|----|----|----|----|----|----|
----------------------------|----|----|----|----|----|----|----|----|----|----|


----|----|----|----|----|----|----------------------------|
----|----|----|----|----|----|----------------------------|
----|----|----|----|----|----|----------------------------|
----|----|----|----|----|----|--7--7-----------5-----7----|
----|----|----|----|----|----|--5--5-----------3-----5----|
----|----|----|----|----|----|----------------------------|


----------------------------|----------------------------|
----------------------------|----------------------------|
----------------------------|----------------------------|
-----------------10---------|--7--7-----------5-----7----|
-----------------8----------|--5--5-----------3-----5----|
----------------------------|----------------------------|


----------------------------|----------------------------|
----------------------------|----------------------------|
----------------------------|----------------------------|
--7--------------10---------|--7--7-----------5-----7----|
--5--------------8----------|--5--5-----------3-----5----|
----------------------------|----------------------------|


----------------------------|----------------------------|
----------------------------|----------------------------|
----------------------------|----------------------------|
-----------------10---------|--7--7-----------5-----7----|
-----------------8----------|--5--5-----------3-----5----|
----------------------------|----------------------------|


----------------------------|-------|-------|-------|-------|-------|-------|
----------------------------|-------|-------|-------|-------|-------|-------|
----------------------------|-------|-------|-------|-------|-------|-------|
--7--------------10---------|-------|-------|-------|-------|-------|-------|
--5--------------8----------|--3----|--5----|--3----|--5----|--6----|--8----|
----------------------------|--1----|--3----|--1----|--3----|--4----|--6----|


-------|-------|-------|-------|-------|-------|-------|-------|-------|-------|
-------|-------|-------|-------|-------|-------|-------|-------|-------|-------|
-------|-------|-------|-------|-------|-------|-------|-------|-------|-------|
-------|--8----|-------|-------|-------|-------|-------|-------|-------|--8----|
--6----|--8----|--3----|--5----|--3----|--5----|--6----|--8----|--6----|--8----|
--4----|--6----|--1----|--3----|--1----|--3----|--4----|--6----|--4----|--6----|


----------------------------|----------------------------|
----------------------------|----------------------------|
----------------------------|----------------------------|
----------------------------|--------5-------------------|
--5--5--8--5L-------5~------|--5--5-----5L-------5~------|
----------------------------|----------------------------|


----------------------------|----------------------------|
----------------------------|----------------------------|
----------------------------|----------------------------|
--------7-------------------|--------5--5L-------5~------|
--5--5-----5L-------5~------|--5--5----------------------|
----------------------------|----------------------------|


----------------------------------------------------|
----------------------------------------------------|
----------------------------------------------------|
----------------------------------------------------|
--5-----5-----8-----5--5-----5--5-----8-----8-------|
----------------------------------------------------|


----------------------------------------------------|
----------------------------------------------------|
----------------------------------------------------|
----------------------------------------------------|
--5-----5-----8-----5--5-----5--5-----8-------------|
----------------------------------------------------|


----------------------------------------------------|
----------------------------------------------------|
----------------------------------------------------|
----------------------------------------------------|
--5-----5-----8-----5--5-----5--5-----8-----8-------|
----------------------------------------------------|


----------------------------------------------------|----------------|
----------------------------------------------------|----------------|
----------------------------------------------------|----------------|
--------------------------------------5L------------|--5~------------|
--5-----5-----8-----5--5-----5--5-------------------|----------------|
----------------------------------------------------|----------------|


----------------------------|----------------------------|
----------------------------|----------------------------|
----------------------------|----------------------------|
--7--7-----------5-----7----|-----------------10---------|
--5--5-----------3-----5----|-----------------8----------|
----------------------------|----------------------------|


----------------------------|----------------------------|
----------------------------|----------------------------|
----------------------------|----------------------------|
--7--7-----------5-----7----|--7--------------10---------|
--5--5-----------3-----5----|--5--------------8----------|
----------------------------|----------------------------|


----------------------------------------------------|
----------------------------------------------------|
----------------------------------------------------|
----------------------------------------------------|
--5-----5--5--8-----5-----------5-----------5-------|
--------------------------8-------------------------|


----------------------------|
----------------------------|
----------------------------|
--------------6-----5-------|
-----5h-8--5----------------|
----------------------------|


----------------------------------------------------|
----------------------------------------------------|
----------------------------------------------------|
----------------------------------------------------|
--5-----5--5--8-----5-----------5-----------5-------|
--------------------------8-------------------------|


----------------------------|
----------------------------|
----------------------------|
----------------------------|
-----5h-8--5----------------|
--------------8-------------|


----------------------------------------------------|
----------------------------------------------------|
----------------------------------------------------|
----------------------------------------------------|
--5-----5--5--8-----5-----------5-----------5-------|
--------------------------8-------------------------|


----------------------------|
----------------------------|
----------------------------|
--------------6-----5~------|
-----5h-8--5----------------|
----------------------------|


----------------------------------------------------|
----------------------------------------------------|
----------------------------------------------------|
----------------------------------------------------|
--5-----5--5--8-----5-----------5-----------5-------|
--------------------------8-------------------------|


----------------------------|----------------------------|
----------------------------|----------------------------|
----------------------------|----------------------------|
----------------------------|--7--7-----------5-----7----|
-----5h-8--5----------------|--5--5-----------3-----5----|
--------------8-------------|----------------------------|


----------------------------|----------------------------|
----------------------------|----------------------------|
----------------------------|----------------------------|
-----------------10---------|--7--7-----------5-----7----|
-----------------8----------|--5--5-----------3-----5----|
----------------------------|----------------------------|


----------------------------|
----------------------------|
----------------------------|
--7--------------10---------|
--5--------------8----------|
----------------------------|


----------------------------------------------------|
----------------------------------------------------|
----------------------------------------------------|
----------------------------------------------------|
--5-----5-----8-----5--5-----5--5-----8-----8-------|
----------------------------------------------------|


----------------------------------------------------|
----------------------------------------------------|
----------------------------------------------------|
----------------------------------------------------|
--5-----5-----8-----5--5-----5--5-----8-------------|
----------------------------------------------------|


----------------------------------------------------|
----------------------------------------------------|
----------------------------------------------------|
----------------------------------------------------|
--5-----5-----8-----5--5-----5--5-----8-----8-------|
----------------------------------------------------|


----------------------------------------------------|
----------------------------------------------------|
----------------------------------------------------|
--------------------------------------5~------------|
--5-----5-----8-----5--5-----5--5-------------------|
----------------------------------------------------|


----------------------------|----------------------------|
----------------------------|----------------------------|
----------------------------|----------------------------|
--7--7-----------5-----7----|-----------------10---------|
--5--5-----------3-----5----|-----------------8----------|
----------------------------|----------------------------|


----------------------------|----------------------------|-------|
----------------------------|----------------------------|-------|
----------------------------|----------------------------|-------|
--7--7-----------5-----7----|--7--------------10---------|--7----|
--5--5-----------3-----5----|--5--------------8----------|--5----|
----------------------------|----------------------------|-------|


----------------||
----------------||
----------------||
----------------||
----------------||
----------------||


BASS



G |----------------|----------------------------|----------------------------|
D |----------------|----------------------------|----------------------------|
A |----------------|--5--5----------------------|--5--5----------------------|
E |----------------|----------------------------|----------------------------|


----------------------------|----------------------------|
----------------------------|----------------------------|
--5--5----------------------|--5--5----------------------|
----------------------------|--------------12s-----------|


----------------------------|----------------------------|
----------------------------|----------------------------|
--5--5----------------------|--5--5----------------------|
----------------------------|----------------------------|


----------------------------|----------------------------|
----------------------------|----------------------------|
--5--5----------------------|--5--5----------------------|
----------------------------|--------------12s-----------|


----------------------------|----------------------------|
----------------------------|----------------------------|
--5--5----------------------|--5--5----------------------|
----------------------------|----------------------------|


----------------------------|----------------|----------------------------|
----------------------------|----------------|----------------------------|
--5--5-----------------5----|----------------|--5--5-----------------5----|
-----------------8----------|----------------|-----------------8----------|


----------------|----------------------------|-----5-----5~---------------|
----------------|----------------------------|-----------------------7----|
----------------|--5--5-----------------5----|----------------------------|
----------------|-----------------8----------|----------------------------|


----------------------------|----------|----------------------------|
----------------------------|----------|----------------------------|
--5--5-----------------5----|-----8s---|--5--5-----------------5----|
-----------------8----------|----------|-----------------8----------|


----------------------------|----------------------------|
----------------------------|----------------------------|
----------------------------|--5--5-----------------5----|
--------------8--7----------|-----------------8----------|


----------------------------|----------------------------|
----------------------------|----------------------------|
----------------------------|--5--5-----------------5----|
--------------7--10---------|-----------------8----------|


-----5-----5~---------------|----------------------------|----------|
-----------------------7----|----------------------------|----------|
----------------------------|--5--5-----------------5----|-----8s---|
----------------------------|-----------------8----------|----------|


----------------------------|----------------------------|
----------------------------|--------5-------------------|
--5--5--8--5----------------|--5--5-----5----------------|
----------------------------|----------------------------|


----------------------------|----------------------------|
--------7-------------------|--------5-------------------|
--5--5-----5----------------|--5--5-----5----------------|
----------------------------|----------------------------|


----------------------------|----------------------------|
----------------------------|--------5-------------------|
--5--5--8--5----------------|--5--5-----5----------------|
----------------------------|----------------------------|


----------------------------|----------------------------|-------|
--------7-------------------|--------5-------------------|-------|
--5--5-----5----------------|--5--5-----5L----------5L---|--5----|
----------------------------|----------------------------|-------|


----------------------------|----------------------------|
----------------------------|----------------------------|
--5--5-----------------5----|----------------------------|
-----------------8----------|--------------8--7----------|


----------------------------|----------------------------|
----------------------------|----------------------------|
--5--5-----------------5----|----------------------------|
-----------------8----------|--------------7--10---------|


----------------------------|
----------------------------|
--5--5-----------------5----|
-----------------8----------|


--------5-----------5h-7h-5-------------------------|
--------------------------------7-----5-------------|
--------------------------------------------7-------|
----------------------------------------------------|


----------------------------|----------|----------------------------|
----------------------------|----------|----------------------------|
--5--5-----------------5----|-----8s---|--5--5-----------------5----|
-----------------8----------|----------|-----------------8----------|


----------------------------|----------------------------|
----------------------------|----------------------------|
----------------------------|--5--5-----------------5----|
--------------8--7----------|-----------------8----------|


----------------------------|----------------------------|
----------------------------|----------------------------|
----------------------------|--5--5--8--8--5-------------|
--------------7--10---------|-----------------------8----|


----------------------------|----------------------------|
--------5--5----------------|--------7--7----------------|
--5--5--------5-------------|--5--5--------5-------------|
-----------------------8----|-----------------------8----|


----------------------------|----------------------------|
--------5--5----------------|----------------------------|
--5--5--------5-------------|--5--5--8--8--5-------------|
-----------------------8----|-----------------------8----|


----------------------------|----------------------------|
--------5--5----------------|--------7--7----------------|
--5--5--------5-------------|--5--5--------5-------------|
-----------------------8----|-----------------------8----|


----------------------------|----------------------------|
--------5--5----------------|--------3-----------3-------|
--5--5--------5--------3----|----------------------------|
----------------------------|--1--1-----1--1--1-----1----|


----------------------------|----------------------------|
--------3-----------3-------|--------3-----------3-------|
----------------------------|----------------------------|
--1--1-----1--1--1-----1----|--1--1-----1--1--1-----1----|


----------------------------|----------------------------|
--------3-----------5-------|--------6-----------6-------|
----------------------------|----------------------------|
--1--1-----1--3--3-----3----|--4--4-----4--4--4-----4----|


----------------------------|----------------------------|
--------6-----------6-------|--------6-----------6-------|
----------------------------|----------------------------|
--4--4-----4--4--4-----4----|--4--4-----4--4--4-----4----|


----------------------------|----------------------------|
--------6-----------8-------|----------------------------|
----------------------------|--5--5-----------------5----|
--4--4-----4--6--6-----6----|-----------------8----------|


----------------------------|----------------------------|
----------------------------|----------------------------|
----------------------------|--5--5-----------------5----|
--------------8--7----------|-----------------8----------|


----------------------------|----------------------------|
----------------------------|----------------------------|
----------------------------|--5--5-----------5--8-------|
--------------7--10---------|----------------------------|


----------------------------|----------------------------|
--5--5--------------5-------|--7--7--------------7-------|
-----------------8----------|-----------------5----------|
----------------------------|----------------------------|


----------------------------|----------------------------|
--5--5--------------5-------|----------------------------|
-----------------8----------|--5--5-----------5--8-------|
----------------------------|----------------------------|


----------------------------|----------------------------|
--5--5--------------5-------|--7--7--------------7-------|
-----------------8----------|-----------------5----------|
----------------------------|----------------------------|


----------------------------|----------------------------|
--5--5--------------5-------|--3--3----------------------|
-----------------8----------|----------------------------|
----------------------------|--------------1--1----------|


----------------------------|----------------------------|
--3--3----------------------|--3--3----------------------|
----------------------------|----------------------------|
--------------1--1----------|--------------1--1----------|


----------------------------|----------------------------|
--3--3----------------------|--6--6----------------------|
----------------------------|----------------------------|
--------------3--3----------|--------------4--4----------|


----------------------------|----------------------------|
--6--6----------------------|--6--6----------------------|
----------------------------|----------------------------|
--------------4--4----------|--------------4--4----------|


----------------------------|----------------------------|
--6--6----------------------|----------------------------|
----------------------------|--5--5-----------------5----|
--------------6--6----------|-----------------8----------|


-----5-----5~---------------|----------------------------|----------|
-----------------------7----|----------------------------|----------|
----------------------------|--5--5-----------------5----|-----8s---|
----------------------------|-----------------8----------|----------|


----------------------------|
----------------------------|
--5--5-----------------5----|
-----------------8----------|


--------5-----------5h-7h-5-------------------------|
--------------------------------7-----5-------------|
--------------------------------------------7-------|
----------------------------------------------------|


----------------------------|----------|----------------------------|
----------------------------|----------|--------3-----------3-------|
--5--5-----------------5----|-----8s---|----------------------------|
-----------------8----------|----------|--1--1-----1--1--1-----1----|


----------------------------|----------------------------|
--------3-----------3-------|--------3-----------3-------|
----------------------------|----------------------------|
--1--1-----1--1--1-----1----|--1--1-----1--1--1-----1----|


----------------------------|----------------------------|
--------3-----------5-------|--------6-----------6-------|
----------------------------|----------------------------|
--1--1-----1--3--3-----3----|--4--4-----4--4--4-----4----|


----------------------------|----------------------------|
--------6-----------6-------|--------6-----------6-------|
----------------------------|----------------------------|
--4--4-----4--4--4-----4----|--4--4-----4--4--4-----4----|


----------------------------|----------------------------|
--------6-----------8-------|--------3-----------3-------|
----------------------------|----------------------------|
--4--4-----4--6--6-----6----|--1--1-----1--1--1-----1----|


----------------------------|----------------------------|
--------3-----------3-------|--------3-----------3-------|
----------------------------|----------------------------|
--1--1-----1--1--1-----1----|--1--1-----1--1--1-----1----|


----------------------------|----------------------------|
--------3-----------5-------|--------6-----------6-------|
----------------------------|----------------------------|
--1--1-----1--3--3-----3----|--4--4-----4--4--4-----4----|


----------------------------|----------------------------|
--------6-----------6-------|--------6-----------6-------|
----------------------------|----------------------------|
--4--4-----4--4--4-----4----|--4--4-----4--4--4-----4----|


----------------------------|----------------------------|
--------6-----------8-------|----------------------------|
----------------------------|--5--5--8--5----------------|
--4--4-----4--6--6-----6----|----------------------------|


----------------------------|----------------------------|
--------5-------------------|--------7-------------------|
--5--5-----5----------------|--5--5-----5----------------|
----------------------------|----------------------------|


----------------------------|----------------------------|
--------5-------------------|----------------------------|
--5--5-----5----------------|--5--5--8--5----------------|
----------------------------|----------------------------|


----------------------------|----------------------------|
--------5-------------------|--------7-------------------|
--5--5-----5----------------|--5--5-----5----------------|
----------------------------|----------------------------|


----------------------------|-------|----------------------------|
--------5-------------------|-------|----------------------------|
--5--5-----5L----------5L---|--5----|--5--5-----------------5----|
----------------------------|-------|-----------------8----------|


----------------------------|----------------------------|
----------------------------|----------------------------|
----------------------------|--5--5-----------------5----|
--------------8--7----------|-----------------8----------|


----------------------------|----------------------------|
----------------------------|----------------------------|
----------------------------|--5--5-----------------5----|
--------------7--10---------|-----------------8----------|


----------------------------|----------------------------|
----------------------------|----------------------------|
----------------------------|--5--5-----------------5----|
--------------8--7----------|-----------------8----------|


----------------------------|----------------------------|
----------------------------|----------------------------|
----------------------------|--5--5-----------------5----|
--------------7--10---------|-----------------8----------|


----------------------------|----------------------------|
----------------------------|----------------------------|
----------------------------|--5--5-----------------5----|
--------------8--7----------|-----------------8----------|


----------------------------|----------------------------|
----------------------------|----------------------------|
----------------------------|--5--5-----------------5----|
--------------7--10---------|-----------------8----------|


-----5-----5~---------------|----------------------------|----------|
-----------------------7----|----------------------------|----------|
----------------------------|--5--5-----------------5----|-----8s---|
----------------------------|-----------------8----------|----------|


----------------------------|----------------------------|
----------------------------|--------5-------------------|
--5--5--8--5----------------|--5--5-----5----------------|
----------------------------|----------------------------|


----------------------------|----------------------------|
--------7-------------------|--------5-------------------|
--5--5-----5----------------|--5--5-----5----------------|
----------------------------|----------------------------|


----------------------------|----------------------------|
----------------------------|----------------------------|
--5--5-----------------5----|----------------------------|
-----------------8----------|--------------8--7----------|


----------------------------|----------------------------|-------|
----------------------------|----------------------------|-------|
--5--5-----------------5----|----------------------------|--5----|
-----------------8----------|--------------7--10---------|-------|


----------------||
----------------||
----------------||
----------------||


Login or Register to remove this ad.