Fanfare (Final Fantasy) Guitar Tab

Submitted: Oct 12, 2009 by Phluff (Last updated: Feb 06, 2010)

3.5
Average: 3.5 (2 votes)
Download | Listen
Game: Final Fantasy
Composer(s): Nobuo Uematsu
Style: Transcription
Series: Final Fantasy

AutoScroll: Slow | Medium | Fast
Fanfare
Final Fantasy
Composed by Nobou Uematsu
Arranged by Phluff
October 10, 2009
 
  
    E E E Q Q Q E E H.
e||-------------------|
B||-3-3-3-3-----------|
G||---------3-1-3-1-3-|
D||-------------------|
A||-------------------|
E||-------------------|

    Q Q Q E E E Q E Q Q Q Q E E.  Q Q Q E E E Q E Q Q Q Q E H.
||------------------------------|-------------------------------||
||:---------1-1-0-1-0-----------|---------1-1-0-1-0-------1-3--:||
||--2-0-2-0-----------2-0---0---|-2-0-2-0-----------2-0-2-------||
||------------------------3---0-|-------------------------------||
||:-----------------------------|------------------------------:||
||------------------------------|-------------------------------||

Duration Legend
---------------
W - whole
H - half
Q - quarter
E - 8th
S - 16th
T - 32nd
X - 64th
. - note dotted
|-n-|  - n-tuplets
Login or Register to remove this ad.

5 comments on Fanfare

the intro's wrong, should

the intro's wrong, should be:

e||-----------------------|
B||-----------------------|
G||-7-7-7-7-3-5-7-5-7-|
D||-----------------------|
A||-----------------------|
E||-----------------------|

in my opinion.

Reply

Just to let you know, this came from the sheet music.

EDIT:: I saw a mistake in my tab though. The end of each part after the intro.

    Q Q Q E E E Q E Q Q Q Q E H.  Q Q Q E E E Q E Q Q Q Q E H.
||------------------------------|-------------------------------||
||:-----------------------------|------------------------------:||
||----------5-5-4-5-4-----------|---------5-5-4-5-4-------5-7---||
||--7-5-7-5-----------7-5-4-5---|-7-5-7-5-----------7-5-7-------||
||:---------------------------7-|------------------------------:||
||------------------------------|-------------------------------||

It may be from the sheet

It may be from the sheet music, but as far as I can hear in the song, the first and last note in the intro is the same.

Yeah, I did screw up with

Yeah, I did screw up with this. Hoping to be able to fix it soon.

Try sending a pm to the admin

Try sending a pm to the admin who submitted it.