Ads

Ending (Final Fantasy) Guitar Tab

Submitted: Aug 31, 2012 by JordanVS (Last updated: Sep 01, 2012)

5
Average: 5 (5 votes)
Download | Listen
Game: Final Fantasy
Composer(s): Nobuo Uematsu
Style: Arrangement, Fingerstyle
Series: Final Fantasy

AutoScroll: Slow | Medium | Fast
Ending Theme                              
Final Fantasy I
Nobuo Uematsu
JordanVS




     E  E  E  E  E  E  E  E     E  E  E  E  E  E  E  E   
E||--------------------3--5--|--------3--------0--3-----|
B||--------------1--3--------|--0--3-----0--1--------1--|
G||--------0--2--------------|--------------------------|
D||-----0--------------------|--0-----------------------|
A||--3-----------------------|--------------3--------3--|
E||--------------------------|--3--------3--------------|


  E  E  E  E  E  E  E  E     E  E  E  E  E  E  E  E   
-----2--5--------0--3-----|--------3--------0--3-----|
--3--------3--1--------1--|--0--3--0--0--1-----1--1--|
--------------------------|-----0-----------0--------|
--0--------0--------------|--0--------0--2--------2--|
--------------3--------3--|--------------3--------3--|
--------------------------|--3--------3--------------|


                       ^                           
  E  E  E  E  E  E  E  E     Q    Q    Q    E  E   
-----2--5--------0--3-----|-----------------------|
--3-----3--3--1-----1--1--|--0----3---------0--1--|
-----2-----------0-----0--|--0---------2----------|
--0--------0--2--------2--|--0---------4----------|
--------------3--------3--|------------3----------|
--------------------------|--3--------------------|


  E  E  Q    Q    Q       Q.     E  Q    Q       H        H         
-----------------------|----------------------|--------------------|
--0---------------1----|--1------1------------|--0-----------------|
-----2--0--------------|------------0----2----|-----------2--------|
--3--------------------|--1---------0---------|--0-----------------|
--5----------3---------|--3--------------3----|-----------3--------|
-----------------------|----------------------|--3--------2--------|


  Q    Q    Q    E  E     E  E  Q    Q    Q     
-----------------------|-----------------------|
--0----3---------0--1--|--0---------------1----|
--0---------2----------|-----2--0--------------|
--0---------4----------|--3--------------------|
------------3----------|--5----------3---------|
--3--------------------|-----------------------|


  Q.     E  Q    Q       H        E  E  E  E     Q    E  E  H         
----------------------|--------------------2--|--3----2--0-----------|
--1------1------------|-----------------4-----|--0----------3--------|
------------0----2----|--0-----------4--------|----------------------|
--1---------0---------|--0--------4-----------|-------------4--------|
--3--------------3----|--2--------------------|----------------------|
----------------------|-----------------------|--3-------------------|


  Q    E  E  H           Q    E  E  E  E  E  E   
--0-------------------|-------------------------|
--1----3--1--0--------|--1----0-----------0-----|
-------------0--------|----------2--0--2--------|
--2-------------------|--3----------2--------2--|
----------------------|-------------------------|
----------------------|-------------------------|


  Q    E  E  H           Q    E  E  H         
----------------------|--3----2--0-----------|
----------------------|--0----------3--------|
--0----2--0-----------|----------------------|
-------------4--------|-------------4--------|
----------------------|----------------------|
--0-------------------|--3-------------------|


  Q    E  E  Q    E  E     H        E  E  E  E     H        H         
--0---------------------|--0-----------------0--|--0-----------------|
-------3--1--0----1--3--|--------------1--3-----|-----------3--------|
-------------0----------|-----------------------|--2-----------------|
--2---------------------|--3--------------------|-----------0--------|
------------------------|-----------------------|--------------------|
------------------------|-----------1-----------|--------------------|


  ^                  
  W                  
--3----------------||
--0----------------||
--0----------------||
-------------------||
-------------------||
--3----------------||




Duration Legend
---------------
W - whole
H - half
Q - quarter
E - 8th
. - note dotted


Tablature Legend
----------------
L - tied note
^ - brush up
v - brush down
Login or Register to remove this ad.

3 comments on Ending

the midi is really short =O

the midi is really short =O

That's weird... oh well,this

That's weird...
oh well,this one should be working =D

FFI end

I updated the listen link!

I updated the listen link!