Ads

Dead Music (Final Fantasy) Guitar Tab

Submitted: Jun 10, 2011 by diralark

5
Average: 5 (6 votes)
Download | Listen
Game: Final Fantasy
Composer(s): Nobuo Uematsu
Style: Arrangement, Fingerstyle
Series: Final Fantasy

AutoScroll: Slow | Medium | Fast
            Dead Music      from Final Fantasy I
              
       Music by Nobuo Uematsu (piano score) >> tab by Diralark

 Ost : http://www.youtube.com/watch?v=kPeKTm5Cr7M

 Guitar (Capo 6), tempo 75

                           Segno
                             ^          ^                         ^           
     H        E  E  E  E     Q    E  E  Q    E  E     E  E  E  E  Q    E  E   
E||-----------------------|------------------------|-------------------------|
B||--------------------0--|--1----1----------3--1--|--0--1--0----------------|
G||--------------1--2-----|--2----2-----2----------|--------------0-------0--|
D||--------------2--------|--2-------2-------------|-----------0--2----3-----|
A||-----------------------|--0-------L-------------|--------------3-------L--|
E||-----------------------|-------------1-------L--|--3--------L-------------|


             ^                                         ^          ^           
  Q    E  E  Q    E  E     E  E  Q     E   E  E  E     Q    E  E  Q    E  E   
------------------------|---------------------------|------------------------|
--1-------1-------------|--------0----(3)--------0--|--1----1----------3--1--|
--2----2-----4-------2--|--2--1--------1---1--2-----|--2----2-----2----------|
--3----3----------4-----|---------------------------|--2-------2-------------|
-------------2----------|---------------------------|--0-------L-------------|
--1-------L----------L--|--0-----L-----0---------L--|-------------1-------L--|


              ^                        ^                         Da Segno                                 
  E  E  E  E  Q    E  E     Q    E  E  Q    Q       E  E  E  E  H           H        E  E  E  E   
-------------------------|-----------------------|-----------------------|-----------------------|
--0--1--0----------------|----------0------------|-----------------------|--------------0--2--4--|
--------0-----0-------0--|--2----------2----1----|--2--------------------|-----------------------|
-----------0-------3-----|-------2-----2---------|--2--2--0--2-----------|--------------1--2--4--|
--------------3-------L--|-----------------------|--0--------L--0--------|-----------2-----------|
--3--------L-------------|--2-------L--0----L----|-----------------------|-----------------------|


  ^          ^                        ^                         ^           
  Q    E  E  E  E  E  E     Q    Q    E  E  E  E     Q    E  E  Q    E  E   
--0----------5--3--2--0--|------------3--2--0-----|------------------------|
-------------------------|--3------------------3--|--1----------2-------5--|
--0----0-----2-----------|------------0-----------|--0-------0-------------|
-------2-----2-----------|--0----0----0-----------|--2----2-----4----4-----|
----------2--3--------L--|------------2-----------|--3-------L--4----4-----|
--0-------L--------------|------------3--------L--|-------------2-------L--|


                            ^          ^                         ^           
  E  E  Q    E  E  E  E     Q    E  E  Q    E  E     E  E  E  E  Q    E  E   
--------2----------------|------------------------|-------------------------|
--5--4-------------------|------------------------|-------------------------|
-------------2-----------|--0----0----------2--0--|-----0-----2-------------|
--4-------------1--2--4--|--2----2-----2----------|--4-----4-----0-------0--|
--2-----L----2--------L--|--2-------2--3-------L--|--5--L--5--L-------3-----|
-------------------------|--0-------L-------------|--------------3-------L--|


             ^                           Da Capo         
  Q    E  E  Q    Q       E  E   E  E  H          
-----------------------|------------------------||
-----------------------|------------------------||
--0--------------------|------------------------||
--2-------4--2----1----|--2---------------------||
--4----2-----L---------|-----2p--0--2-----------||
-------------2---------|--0---------L--0--------||

Legend
---------------
H - half
Q - quarter
E - 8th
. - note dotted
L - tied note
(n) - ghost note
h - hammer on
p - pull off
b - bend
^ - brush up
Login or Register to remove this ad.

2 comments on Dead Music

i love this music**

5

i love this music**

yeah indeed, all these

yeah indeed, all these violins.. :-O this is so beautiful