Ads

Sunset Waltz (Final Fantasy XV) Guitar Tab

Submitted: Nov 08, 2022 by boogyman19946 (Last updated: Nov 10, 2022)

5
Average: 5 (1 vote)
Download | Listen
Game: Final Fantasy XV
Composer(s): Yoko Shimomura
Style: Arrangement, Fingerstyle
Series: Final Fantasy

AutoScroll: Slow | Medium | Fast

Sunset Waltz
For Guitar
Composed by: Yoko Shimomura
Arranged by: boogyman19946

Original key is G minor, but arrangement is transposed to A minor for ease of playing.
If you want to play in original key, either capo on fret 10 or tune to D standard (DGCFAD).


    1   +   2   +   3   +       1   +   2   +   3   +       1   +   2   +   3   +   
E---------------0-------0---|-------------------0-------|---------------0-------0---|
B-----------3-------3-------|-----------1---------------|-----------3-------3-------|
G-----------2-------2-------|-----------2---------------|-----------2-------2-------|
D-------2-------------------|-------2-------------------|-------2-------------------|
A---0-----------------------|---0-----------------------|---0-----------------------|
E---------------------------|---------------------------|---------------------------|

    1   +   2   +   3   +       1   +   2   +   3   +       1   +   2   +   3   +   
E-------------------0-------|---0---------------0-------|-------------------0-------|
B-----------1---------------|---------------3-----------|---1-------3---------------|
G-----------2---------------|-----------2---------------|---------------2-----------|
D-------2-------------------|-------2-------------------|-------2-------------------|
A---0-----------------------|---0-----------------------|---0-----------------------|
E---------------------------|---------------------------|---------------------------|

    1   +   2   +   3   +       1   +   2   +   3   +       1   +   2   +   3   +   
E---3---------------1-------|---0-------0---------------|---------------------------|
B---------------0-----------|-------3-------------------|-------------------3-------|
G-----------0---------------|---0-----------------------|---2-----------2-----------|
D-------0-------------------|---------------------------|-----------3---------------|
A---------------------------|---3-----------------------|-------3-------------------|
E---3-----------------------|-------------------0-------|---1-----------------------|

    1   +   2   +   3   +       1   +   2   +   3   +       1   +   2   +   3   +   
E---------------------------|---------------------------|---------------------------|
B---0-----------1---0-------|-----------------------3---|---0-----------1---3---4---|
G---------------------------|---2-----------0---2-------|---------------------------|
D-----------0-----------2---|-----------3---------------|-----------0---------------|
A-------2-------------------|-------3-------------------|-------2-------------------|
E---3-----------------------|---1-----------------------|---3-----------------------|

    1   +   2   +   3   +       1   +   2   +   3   +       1   +   2   +   3   +   
E---0---------------0-------|-------------------0-------|---3---------------1-------|
B---------------3-----------|---1-------3---------------|---------------0-----------|
G-----------2---------------|---------------2-----------|-----------0---------------|
D-------2-------------------|-------2-------------------|-------0-------------------|
A---0-----------------------|---0-----------------------|---------------------------|
E---------------------------|---------------------------|---3-----------------------|

    1   +   2   +   3   +       1   +   2   +   3   +       1   +   2   +   3   +   
E---0-------0---------------|-------------------0-------|---------------------------|
B-------3-------------------|---------------------------|---3-----------1---0-------|
G---------------------------|---2-----------2-----------|-----------0---------------|
D---------------------------|-----------3---------------|-------0-------------------|
A---3-----------------------|-------3-------------------|---------------------------|
E-------------------0-------|---1-----------------------|---3-----------------------|

    1   +   2   +   3   +       1   +   2   +   3   +       1   +   2   +   3   +   
E---------------------------|---------------------------|---0---------------0-------|
B---------------------------|---------------0---1---3---|---1-----------3-----------|
G---2-----------------------|---------------------------|---2-------2---------------|
D---2-----------------------|---------------------------|-------2-------------------|
A---0-------3-------2-------|---0-----------------------|---0-----------------------|
E---------------------------|---------------------------|---------------------------|

    1   +   2   +   3   +       1   +   2   +   3   +       1   +   2   +   3   +   
E-------------------0-------|---3---------------1-------|---0-------0---------------|
B---1-------3-------3-------|---0-----------0-----------|---1---3-------------------|
G---2-------2---------------|---0-------0---------------|---0-----------------------|
D-------2-------------------|-------0-------------------|---------------------------|
A---0-----------------------|---------------------------|---3-----------------------|
E---------------------------|---3-----------------------|-------------------0-------|

    1   +   2   +   3   +       1   +   2   +   3   +       1   +   2   +   3   +   
E---------------------------|---------------------------|---------------------------|
B-------------------3-------|---0-----------1---0-------|-----------------------3---|
G---2-----------2-----------|---0-----------------------|---2-----------0---2-------|
D---3-------3---------------|---0-------0-----------2---|---3-------3---------------|
A-------3-------------------|-------2-------------------|-------3-------------------|
E---1-----------------------|---3-----------------------|---1-----------------------|

    1   +   2   +   3   +       1   +   2   +   3   +       1   +   2   +   3   +   
E---------------------------|---0---------------0-------|-------------------0-------|
B---0-----------1---3---4---|---1-----------3-----------|---1-------3-------3-------|
G---0-----------------------|---2-------2---------------|---2-------2---------------|
D---0-------0---------------|-------2-------------------|-------2-------------------|
A-------2-------------------|---0-----------------------|---0-----------------------|
E---3-----------------------|---------------------------|---------------------------|

    1   +   2   +   3   +       1   +   2   +   3   +       1   +   2   +   3   +   
E---3---------------5-------|---------------------------|-------------------0-------|
B---3---------------3-------|---5---3---5---------------|---------------------------|
G---4-----------4-----------|---5-----------------------|---2-----------2-----------|
D-----------5---------------|---5-----------------------|---3-------3---------------|
A-------5-------------------|---3-----------------------|-------3-------------------|
E---3-----------------------|-------------------0-------|---1-----------------------|

    1   +   2   +   3   +       1   +   2   +   3   +   
E---------------------------|---------------------------|
B---3-----------1---0-------|---------------------------|
G---0-------0---------------|---2-----------------------|
D---0---0-------------------|---2---2-------------------|
A---------------------------|---0-------3---2---0-------|
E---3-----------------------|---------------------------|

Fifth and fourth measures from the end can also be played in open G and C positions if you can make that stretch to the fret 5 on the high E and switch to an open C chord quickly.

Login or Register to remove this ad.

1 comment on Sunset Waltz

Wow I have been waiting for a

5

Wow I have been waiting for a good arrangement of this. Really nice!