Ads

Sunset Waltz (Final Fantasy XV) Guitar Tab

Submitted: Sep 25, 2017 by kpcart (Last updated: Oct 17, 2017)

5
Average: 5 (1 vote)
Download | Listen
Game: Final Fantasy XV
Composer(s): Yoko Shimomura
Style: Arrangement, Artificial harmonics, Fingerstyle
Series: Final Fantasy

AutoScroll: Slow | Medium | Fast
Title: Sunset Waltz
SubTitle: Final Fantasy XV
Artist: Yoko Shimomura
Arrangement by Krzysztof Piotrowicz

In B minor instead of G minor for solo guitar

     E  E  E  E  E  E     E  E  Q    Q       E  E  E  E  E  E
E||-----------2-----2--|------------------|-----------2-----2--|
B||--------5-----5-----|--------3----5----|--------5-----5-----|
G||--------4-----------|--------4---------|--------4-----------|
D||-----4--------------|-----4------------|-----4--------------|
A||--2-----------------|--2---------------|--2-----------------|
E||--------------------|------------------|--------------------|

  E  E  Q    Q       E  E  E  E  E  E     E  E  E  E  E  E
------------------|--2--------0--2-----|--------0-----2-----|
--------3----5----|--3--------3--3-----|--3-----3-----3-----|
--------4---------|--------4-----------|--4-----------------|
-----4------------|-----4-----------4--|-----4-----4-----4--|
--2---------------|--2-----------2-----|--------------2-----|
------------------|--------------------|--------------------|

  E  E  E  E  E  E     E  E  E  E  E  E     E  E  E  E  E  E
--5-----------3-----|--2--0--2-----------|--------------0-----|
--2-----------2-----|--3-----------3-----|--0-----------------|
--------2-----------|--2--------2-----2--|--0-----0-----0-----|
-----2-----2-----2--|--0-----0-----------|--0--------0-----0--|
--0-----------------|--------------------|-----2--------------|
--------------------|--------------------|--3-----------------|

  E  E  E  E  E  E     E  E  E  E  E  E     E  E  E  E  E  E
--------------------|-----------------0--|--------------0-----|
--2--------3--2-----|--0-----------0-----|--2-----2--3-----6--|
--2-----2-----2-----|--0-----0--3--0-----|--2--------2--------|
-----2-----------4--|-----0--------------|-----2--------------|
--0-----------------|--------------------|--0-----------0--4--|
--------------------|--3-----------3-----|--------------------|

  E  E  E  E  E  E     E  E  E  E  E  E     E  E  E  E  E  E
--2--------0--2-----|--------0-----2-----|--5-----------3-----|
--3--------3--3-----|--3-----3-----3-----|--2-----------2-----|
--------4-----------|--4-----------------|--------2-----------|
-----4-----------4--|-----4-----4-----4--|-----2-----2-----2--|
--2-----------2-----|--------------2-----|--0-----------------|
--------------------|--------------------|--------------------|

  E  E  E  E  E  E     E  E  E  E  E  E     E  E  E  E  E  E
--2--0--2-----------|--------------2-----|--0-----------------|
--3-----------3-----|--0-----------0-----|--2--------3--2-----|
--2--------2-----2--|--0-----0--------0--|--2-----2-----------|
--0-----0-----------|--0--------0--------|-----2-----------2--|
--------------------|-----2--------------|--0-----------------|
--------------------|--3-----------------|--------------------|

  E  E  E  E  E  E     E  E  E  E  E  E     E  E  E  E  E  E
--------------------|--------------0--1--|--2--------0--2-----|
--0-----------------|--------2--3-----0--|--3--------3--3-----|
--------4-----4-----|--------4-----------|--------4-----------|
-----4-----4-----4--|-----4--------------|-----4-----------4--|
--2-----------------|--2-----------------|--2-----------2-----|
--------------------|--------------------|--------------------|

  E  E  E  E  E  E     E  E  E  E  E  E     E  E  E  E  E  E
--------0-----2-----|--5-----------3-----|--2--0--2-----------|
--3-----3-----3-----|--2-----------2-----|--3-----------3-----|
--4-----------------|--------2-----------|--2--------2-----2--|
-----4-----4-----4--|-----2-----2-----2--|--0-----0-----------|
--------------2-----|--0-----------------|--------------------|
--------------------|--------------------|--------------------|

  E  E  E  E  E  E     E  E  E  E  E  E     E  E  E  E  E  E
--------------0-----|--------------------|-----------------0--|
--0-----------------|--2--------3--2-----|--0-----------0-----|
--0-----0-----0-----|--2-----2-----2-----|--0-----0--3--0-----|
--0--------0-----0--|-----2-----------4--|-----0--------------|
-----2--------------|--0-----------------|--------------------|
--3-----------------|--------------------|--3-----------3-----|

  E  E  E  E  E  E     E  E  E  E  E  E     E  E  E  E  E  E
--------------0-----|--2--------0--2-----|--------0-----2-----|
--2-----2--3-----6--|--3--------3--3-----|--3-----3-----3-----|
--2--------2--------|--------4-----------|--4-----------------|
-----2--------------|-----4-----------4--|-----4-----4-----4--|
--0-----------0--4--|--2-----------2-----|--------------2-----|
--------------------|--------------------|--------------------|

  E  E  E  E  E  E     E  E  E  E  E  E     E  E  E  E  E  E
--5-----------7-----|--2--0--2-----------|-----------------0--|
--2-----------5-----|--3-----------3-----|--0-----------0-----|
--------2-----6-----|--2--------2-----2--|--0--------3--------|
-----2--------------|--0-----0-----------|--------0-----------|
--0--------0-----0--|--------------------|-----2--------------|
--------------------|--------------------|--3-----------3-----|

                                            Slowing
  E  E  E  E  E  E     E  E  E  E  E  E     E  E  E  E  E  E
--------------------|--------------------|--------------------|
--2--------3--2-----|--0-----------------|--------------------|
--2-----2-----------|--------4-----4-----|--------4-----4-----|
-----2-----------2--|-----4-----4-----4--|-----4-----4-----4--|
--0-----------------|--2-----------------|--2-----------------|
--------------------|--------------------|--------------------|

  E  E  E  E  E  E     E  E  E    E    E    E
--------------------|----------------<>2--<>7--||
--------------------|-----------<>3------------||
--------4-----4-----|--------4-----------------||
-----4-----4-----4--|-----4--------------------||
--2-----------------|--2-----------------------||
--------------------|--------------------------||
Login or Register to remove this ad.