Login or Register to remove this ad.

Noctis (Final Fantasy XV) Guitar Tab

Submitted: Nov 25, 2017 by kpcart

5
Average: 5 (2 votes)
Download | Listen
Game: Final Fantasy XV
Composer(s): Yoko Shimomura
Style: Arrangement, Fingerstyle, Natural harmonics
Series: Final Fantasy

AutoScroll: Slow | Medium | Fast
                   Noctis Theme - Final Fantasy XV                         


     E  E  E  E  E  E     E  E  E  E  E  E     E  E  E  E  E  E   
E||--------------------|--------------------|--------------------|
B||--------------------|--------------0-----|--------------------|
G||--------0-----2-----|--------0--2-----0--|--------0-----2-----|
D||-----0-----0-----0--|-----0--------------|-----0-----0-----0--|
G||--0-----------------|--0-----------------|--0-----------------|
D||--------------------|--------------------|--------------------|


  E  E  E  E  E  E       E  E  E  E  E  E      E  E  E  E  E  E   
--------------------||---7--------8-----7--|--10--------8-----7--|
--------------0-----||---------------------|---7-----------------|
--------0--2-----0--||*--7-----0--9-----7--|---------0--9-----7--|
-----0--------------||*-----0--------0-----|------0--------0-----|
--0-----------------||---0--------0--------|---0--------0--------|
--------------------||---------------------|---------------------|


  E  E  E  E  E  E     E  E  E  E   E  E     E  E   E  E  Q     
--8--------------7--|--8------------------|--8-----10-----8----|
--------------------|---------------------|---------7----------|
-----------------7--|--9------------------|--9------------9----|
--------7-----9-----|--------7--9--10--7--|-----0------0-------|
-----9-----9--------|-----9---------------|--------------------|
--7-----------------|--7------------------|--0------0-----0----|


   E  E  E   E  E  E     E  E  E  E  E  E     E  E  E  E  E  E   
--12--------10--8-----|--7--------------5--|--7-----------------|
-------------7--------|--------------0-----|--------------0-----|
--12------------9-----|--7-----0--------5--|--7-----0--------0--|
------0------------7--|-----0-----7--------|-----0-----7--------|
----------------------|--0-----------------|--0-----------------|
---0-----0------0-----|--------------------|--------------------|


  E  E  E  E  E  E      E  E  E  E  E  E     E  E  E  E   E  E   
--7--------8-----7--|--10--------8-----7--|--8---------------7--|
--------------------|---------------------|---------------------|
--7-----0--9-----7--|--10-----0--9-----7--|------------------7--|
-----0--------0-----|------0--------0-----|--------7--9--10-----|
--0--------0--------|---0--------0--------|-----9---------------|
--------------------|---------------------|--7------------------|


  E  E  E  E   E  E     E  E   E  E   E  E      E  E  E  E  E  E   
--8------------------|--8-----10-----11-----|--12-----7-----3-----|
---------------------|-------------------0--|---------0-----------|
--9------------------|--9-----11------------|------0-----0-----0--|
--------7--9--10--7--|-----0------0---------|---------------------|
-----9---------------|---------------11-----|---9-----------0-----|
--7------------------|--0------0------------|---------------------|


  E  E  E  E  E  E     E  E  E  E  E  E     E  E  E  E  E  E   
--3--------5--3-----|--2--------------2--|--3-----------0--3--|
--5-----------------|--0-----0-----0-----|--0--------0--------|
-----0-----0--------|--------------------|--------0-----------|
--------------------|-----4-----4--------|-----2-----2--------|
--5-----5--------5--|--4-----------------|--------------------|
--------------------|--------------------|--2-----------------|


  E  E  E  E  E  E      E  E  E   E   E  E      E  E  E  E  E  E   
--2--------------7--|--12--------12--10--8--|--10--8--7-----------|
--3--------0--7-----|--13--------13---------|---8-----0-----0-----|
--------------------|---------0-------------|---------0-----------|
--------4--0--------|-----------------------|------------7--------|
-----2--------------|------0----------------|---0--------------0--|
--0-----------------|--10--------10---------|---------------------|


   E   E   E   E   E   E      E  E   E  E  E  E     E  E  E  E  E  E   
------------------10--12--|---------12-----3-----|--3--------3--2--0--|
--13----------13----------|--12------0-----0-----|--5--------5--------|
----------10--------------|------0------0-----0--|-----0--------------|
------10------------------|----------------------|--------------------|
--10----------10----------|---9------------------|--5-----0--5--------|
--------------------------|----------------------|--------------------|


  |--3--|  |--3--|                                                   
  E  E  E  E  E  E  E  E     E  E  E  E  E  E     E  E  E  E  E  E   
--------------------2--3--|--3-----------0--3--|--2--------------7--|
--7--------4--------------|--0--------0--------|--3-----------7-----|
--------4--------4--------|--------0-----------|-----------7--------|
-----4--------4-----------|-----2-----2--------|-----------0--------|
--4-----------------------|--------------------|-----2--------------|
--------------------------|--2-----------------|--0-----0-----------|


   E  E  E   E   E   E      E  E  E  E  E  E     E  E   E  E   E  E   
--12--------12--14--15--|--10--8--7--------7--|--8-----10-----12-----|
--13--------13------12--|---8-----0-----------|----------------------|
---------0------14------|---------0-----------|-----9------9------9--|
------------------------|------------7--------|---------7------------|
------0------0----------|---0-----------0-----|----------------------|
--10--------------------|---------------------|--7-------------7-----|


                                                    NH                       
  E  E   E  E   E  E      E  E   E  E   E  E        E   E   E   E   E  E     
--9-----11-----12-----|--15-------------------|--<>19--14--11--------------||
----------------------|-------------0------0--|----------------12------0---||
-----9------9------9--|----------------11-----|--------------------11-----*||
---------8------------|-----------------------|---------------------------*||
----------------------|---------11------------|----------------------------||
--8-------------8-----|------9----------------|----------------------------||


  E    
-----||
--4--||
--4--||
-----||
--4--||
-----||
Login or Register to remove this ad.