Ads

Ardyn's Theme (Prayer of the Oracle) (Final Fantasy XV) Guitar Tab

Submitted: Apr 11, 2019 by guitarsvd (Last updated: Apr 12, 2019)

5
Average: 5 (1 vote)
Download | Listen
Game: Final Fantasy XV
Composer(s): Yoko Shimomura
Style: Arrangement, Artificial harmonics, Fingerstyle, Natural harmonics
Series: Final Fantasy

Click here for a video example.

AutoScroll: Slow | Medium | Fast
                             Prayer of the Oracle                               


                                                          Cecil Chau (GuitarSVD)
Track 1



                                              NH                                
     Q    Q    Q       Q     Q     Q          H.               H         E  E   
E||--7--------------|--7-----8----10----|----10------------|----------------7--|
B||------------0----|--8----10----12----|------------------|--10--------10-----|
G||-------0---------|-------------------|-----0------------|---7---------------|
D||-----------------|-------------------|--<>12------------|-------------------|
A||-----------------|-------------------|------------------|---9---------------|
D||--5--------------|-------------------|------------------|-------------------|


                       NH     NH                                          
  Q    Q    Q          Q      Q    Q        H.              H.            
--8----7----8----|--<>12-----------8----|--10------------|--7------------|
--8--------------|----------------------|---0------------|--0------------|
-----------------|----------<>7---------|----------------|---------------|
-----------------|----------------------|----------------|---------------|
--7--------------|-----9----------------|----------------|--7------------|
-----------------|----------------------|---9------------|---------------|


                           NH                       NH               
    Q    Q      Q          Q      Q      Q          Q    Q     Q     
--<>3---------<>2----|--<>12------------------|--<>12---------10----|
---------------------|----------<>3----<>2----|---------------------|
---------0-----------|------------------------|---------------------|
---------------------|------------4-----------|----------9----------|
----4----------------|------------------------|---------------------|
---------------------|-----4------------------|-----9---------------|


   H         Q        Q     Q    Q       E   S S Q     Q     
--10--------10----|--10----------7----|--8--10-8-7----------|
------------------|--------10---------|---------------10----|
------------------|-------------------|---------------------|
---0--------------|-------------------|---------------------|
------------------|---0---------------|---------------------|
------------------|-------------------|--0------------------|


  E  E  Q    E  E     E  E  E  E  E  E     E  E  E  E  E  E   
--7----------------|--------------------|--7-----------------|
-----8--L----------|--L-----------------|--------------0-----|
-------------------|--------------------|--7-----0--------7--|
-------------------|--------------------|-----0-----7--------|
-------------------|--0--------0--2--3--|--------------------|
--5----------L--0--|-----4--5-----------|--5-----------------|


  E  E  E  E   Q        E  E  E  E   Q        Q    E  E   E  E   
--L-----8-----10----|--10-----------------|------------------7--|
--8-----0-----------|---------------------|--10----------10-----|
--0-----------------|---------------------|---9----7------------|
-----0-----0---9----|---7-----9-----10----|-----------0---L-----|
--------------------|------0-----0--------|---------------------|
--5-----------------|---0-----------------|---0-----------------|


  Q    Q    E  E      Q     Q    Q        Q    Q    Q       Q    Q    Q     
--8----7----8-----|--12----10----8----|--10--------------|--7--------------|
------------------|-------------------|------------------|-----------------|
------------------|-------------------|------------------|------------4----|
--5---------4--5--|---7----------0----|---0--------------|--5----7---------|
--7---------------|-------------------|--------7----9----|--7--------------|
------------------|---0---------------|---9--------------|-----------------|


   ^                        NH                         NH                
   Q     E   E   Q          E  E    E  E    Q          H         E   E   
--15------------14----|--<>12--------------------|--<>12---------L--10--|
---0------------------|-----------<>3-----<>2----|----------------------|
---0------------------|--------------------------|----------------------|
------------14---L----|--------4-------4---------|----11----------------|
--------14------------|--------------------------|----------------------|
--11------------------|-----4--------------------|-----9----------------|


   Q    Q     Q        Q     Q    Q       Q    Q    Q       E  E  H         
--10---------10----|--10----------7----|--8----7----5----|--7--------------|
-------------------|--------10---------|-----------------|-----8--L--------|
-------------------|---0---------------|-----------------|-----------------|
--11----9----------|-------------------|--4---------2----|-----------------|
-------------12----|---0---------------|-----------------|--5--------------|
-------------------|-------------------|--0--------------|--5--------------|


  E  E  E  E  E  E     Q    Q    Q       Q    Q    Q       Q.     E  E  E   
--------------------|-------3----3----|--5----6----8----|--6---------------|
--L-----------------|------------3----|--1----L----8----|--6------6--6-----|
-----------5--------|--0----3---------|-------L---------|------------------|
--------7-----9--7--|-----------------|-----------------|---------8--7--8--|
-----5--------------|-----------------|-----------------|------------------|
--0-----------------|--1--------------|--1--------------|--0---------------|


   Q     Q    Q        E  E  E  E  E  E     Q    Q    E  E     H.            
--11----10----8----|---6-----------6-----|-------5-------3--|--1------------|
---6----------8----|---------------------|-------6-------4--|--1------------|
-------------------|--10--8--7--8--7--0--|-------5-------3--|--2------------|
-------------------|---------------------|------------------|---------------|
-------------------|---6-----------------|------------------|---------------|
---5---------------|---------------------|--3---------1-----|--0------------|


  H.              E  E  E  E  Q       E   E   E   E   E   E   
---------------|--3-----5-----6----|--8------10----------11--|
--3------------|-------------------|-------------10----------|
--3------------|--0-----5-----7----|---------10----------10--|
---------------|-----1-----1-------|-----10----------10------|
---------------|-------------------|--8----------------------|
--5------------|--1----------------|-------------------------|


   E  E  E  E  Q       E  E  E  E  Q        H         Q       H        E  E   
--13----------------|--6-----------3----|--11--------10----|--8--------6--5--|
--------------------|-----------3-------|---8--------------|--4--------------|
--------------------|--------3----------|---8--------------|-----------------|
---------0----------|-----5-------------|------------------|-----------------|
------0-----7--8----|-------------------|------------------|-----------------|
---0----------------|--5----------------|--10--------------|--4--------------|


  H        E  E     E  E  E  E  E  E     E  E  E  E  E  E   
--6--------------|--L-----------------|--6-----------L--4--|
-----------------|--------------------|-----------7--------|
--0--------7--5--|--------------------|--------6-----6-----|
-----------------|--8--7--5-----------|-----4-----------4--|
-----------------|-----------5--------|--------------------|
--5--------------|--L-----------8--5--|--4-----------------|


  E  E  E  E  E  E     E  E  E  E  E  E     E  E  E  E    Q     
--4-----------------|--6-----8-----9-----|--8------------------|
-----------4--------|--7-----4-----4-----|-----------4--<>4----|
--------5-----5-----|-----6-----6-----6--|--------5-------5----|
-----6-----------6--|--------------------|-----6---------------|
--------------------|--------------------|---------------------|
--4-----------------|--4-----------------|--4------------------|


    E  E    Q    E    E     E  E   E   E   E  E     E   E  E   E  Q     
--<>4--------------------|--8--------------------|--8------------------|
--------------------<>4--|--------11-------L--9--|----------------9----|
----------<>5----L-------|--------10---L---------|---------8------8----|
-------3----L----3-------|-----8-----------8-----|-----10-----10-------|
-------------------------|-----------------------|--8------------------|
----3--------------------|--8--------------------|---------------------|


  E  E  E  E  Q         E  E  E  E    Q        E  E  E  E  Q     
--------------6----|--<>1-----------<>1----|--11-----9-----8----|
--6--------6--L----|-------------2----L----|---------9-----9----|
--------7----------|----------3------------|------8-----8-------|
-----8-------------|-------4---------------|--------------------|
-------------------|-----------------------|---9----------------|
--8----------------|----1------------------|--------------------|


  H.              E  E  E  E  Q        H         Q       Q     Q     E  E   
--6------------|--------5-----6----|--11--------10----|--------8-----L--6--|
--6------------|--8----------------|------------------|--------------------|
--7------------|-------------------|------------------|-------10-----L-----|
---------------|-----8-----8-------|------------------|--------------------|
--5------------|--6----------------|---8--------------|--8-----------------|
---------------|-------------------|------------------|--------------------|


   H.              Q    Q    Q       Q    Q    Q       Q    Q    Q     
----------------|-------1---------|-----------------|-------1---------|
--11------------|-------3----3----|--3---------1----|-------3----3----|
--10------------|------------3----|--2--------------|--3---------3----|
---8------------|-----------------|-------1---------|-----------------|
----------------|-----------------|-----------------|-----------------|
---8------------|--0--------------|--1--------------|--0--------------|


  Q    Q    Q       E  E  E  E  Q       Q    Q    Q       Q    Q    Q     
-----------------|-------------------|-----------------|-------4---------|
--3---------1----|--------1-----3----|--4--------------|--4----4---------|
--2--------------|--3-----------3----|------------3----|------------5----|
-------1---------|-----0-----0-------|-------1---------|------------6----|
-----------------|-------------------|--3--------------|-----------------|
--1--------------|--0----------------|-----------------|--6--------------|


  E  E  E  E  Q       Q    Q    Q       E  E  E  E  E  E     E  E  E  E   Q     
-------------------|-----------------|--7-----------------|--L-----8-----10----|
--4-----------3----|--1----0---------|--------------0-----|--8-----0-----------|
-----------2--L----|------------2----|--7-----0--------7--|--0-----------------|
-----0--4----------|--0--------------|-----0-----7--------|-----0-----0---9----|
-------------------|-----------------|--------------------|--------------------|
--0----------------|-----------------|--5-----------------|--5-----------------|


   E  E  E  E   Q        Q    E  E   E  E     Q    Q    E  E   
--10-----------------|------------------7--|--8----7----8-----|
---------------------|--10----------10-----|------------------|
---------------------|---9----7------------|------------------|
---7-----9-----10----|-----------0---L-----|--5---------4--5--|
------0-----0--------|---------------------|--7---------------|
---0-----------------|---0-----------------|------------------|


                                                            ^                   
   Q     Q    Q        Q    Q    Q       Q    Q    Q        Q     E   E   Q     
--12----10----8----|--10--------------|--7--------------|--15------------14----|
-------------------|------------------|-----------------|---0------------------|
-------------------|------------------|------------4----|---0------------12----|
---7----------0----|---0--------------|--5----7---------|------------14--------|
-------------------|--------7----9----|--7--------------|--------14------------|
---0---------------|---9--------------|-----------------|--11------------------|


     NH                                                             
     E  E    E  E    Q        Q    Q    Q         Q    E  E  E  E   
--<>12--------------------|--10---------7----|--<>3----------------|
-----------<>3-----<>2----|---7---------7----|---------------0-----|
--------------------------|--------7---------|------------0-----0--|
--------4-------4---------|------------------|---------2-----------|
--------------------------|------------------|---------------------|
-----4--------------------|---9--------------|----2----------------|


  Q    Q    Q       H        S S S S    S S S S S S S S S S S S  
-----------------|--3--------1-------|--------------------------|
--1----3----4----|-------------4-3-1-|--------------------------|
--0--------------|-------------------|--3-1-0-------------------|
-----------------|-------------------|--------3-1-0-------------|
-----------------|-------------------|--------------3-1---------|
--1--------------|--1----------------|------------------6-5-3-1-|


  Q    Q    Q       Q    Q    Q       E  E  Q    Q       H        E  E   
-------5----7----|--8----7----5----|--7---------------|-----------------|
--8--------------|-----------------|-----8--L---------|-----------------|
-----------------|-----------------|-------------0----|--7--------5--4--|
-----------------|--4---------2----|--------0---------|-----------------|
-----------------|-----------------|------------------|-----------------|
--5--------------|--0--------------|--5---------------|--5--------------|


  E  E  E  E  E  E     Q    Q    Q       Q    Q    Q       H        E  E   
--------------------|-----------------|-----------------|-----------------|
--------------------|-----------------|-----------------|--6--------5--3--|
--4--5--------------|-----------------|-------0----7----|--0--------------|
--------7--5--4-----|--4----7----1----|--0--------------|-----------------|
-----------------7--|-----------------|-----------------|-----------------|
--5-----------------|--0--------------|--5--------------|--5--------------|


  E  E  E  E  E  E     Q    Q.     E     Q    Q    Q       H.             
--------------------|-----------------|-----------------|--3------------||
--3--5--------------|-----------------|-------0----3----|--0------------||
--0-----5--4-----2--|--0-----------0--|--0--------------|---------------||
--------------2-----|-------4---------|-----------------|---------------||
--------------------|-----------------|-----------------|---------------||
--5-----------------|--0--------------|--5--------------|--5------------||




Duration Legend
---------------
W - whole
H - half
Q - quarter
E - 8th
S - 16th
T - 32nd
X - 64th
. - note dotted
|-n-|  - n-tuplets


Tablature Legend
----------------
L - tied note
x - dead note
g - grace note
(n) - ghost note
> - accentuded note
NH - natural harmonic
AH - artificial harmonic
TH - tapped harmonic
SH - semi harmonic
PH - pitch harmonic
h - hammer on
p - pull off
b - bend
br - bendRelease
pb - preBend
pbr - preBendRelease
brb - bendReleaseBend
\n/ - tremolo bar dip
\n - tremolo bar dive
-/n - tremolo bar Release up
/n\ - tremolo bar inverted dip
/n - tremolo bar return
-\n - tremolo bar Release down
S - shift slide
s - legato slide
/ -  slide into from below or out of upwards
\ -  slide into from above or out of downwards
~ - vibrato
W - wide vibrato
tr - trill
TP - tremolo picking
T - tapping
S - slap
P - pop
< - fade in
^ - brush up
v - brush down
Login or Register to remove this ad.