Ads

Twilight Over Thanalan (Final Fantasy XIV) Guitar Tab

Submitted: Jan 03, 2021 by ajarthur (Last updated: Jan 04, 2021)

5
Average: 5 (2 votes)
Download | No audio :(
Game: Final Fantasy XIV
Composer(s): Nobuo Uematsu, Naoshi Mizuta, Ryo Yamazaki, Tsuyoshi Sekito, Masayoshi Soken
Style: Fingerstyle
Series: Final Fantasy

Click here for a video example.

AutoScroll: Slow | Medium | Fast
Twilight Over Thanalan – FFXIV		Nobuo Uematsu


 E  E  E  E  E  E  E  E   E  E  E  E  E  E  E  E   E  E  E  E  E  E  E  E  
----2--0--------2--0----|----2--0--------2--0----|------------------------|
-0--------3--0--------3-|-0--------3--0--------3-|-0-----3----------------|
-0----------------------|-0----------------------|-2--------2-----0-----2-|
-2----------------------|-2----------------------|-2----------------------|
-2----------------------|-3----------------------|-0----------------------|
-0----------------------|------------------------|------------------------|

E  E  Q  H        E  E  E  E  E  E  E  E   E  E  E  E  E  E  E  E  
----------------|----2--0--------2--0----|----2--0--------2--0----|
----0--0--------|-0--------3--0--------3-|-0--------3--0--------3-|
(2)-------1-----|-0----------------------|-2----------------------|
-0--------2-----|-2--------2--------2----|-0--------0--------0----|
-2--------2-----|-0----------------------|------------------------|
-3--------0-----|------------------------|------------------------|
 
E  E  E  E  E  E  E  E    E  E  H      Q   E  E  E  E  E  E  E  E  
------------------------|----------------|----2--0--------2--0----|
-0-----3----------------|--------------3-|-0--3--0--3--0--3--0--3-|
-4--------------------0-|(0)-----------2-|-0--------2--0--------2-|
-4--------4-----0-------|----4--2------0-|-X----------------------|
-2--------2--------2----|-------2--------|-3----------------------|
------------------------|-------0--------|------------------------|

 E  E  E  E  E  E  E  E   E  E  E  E  E  E  E  E   E  E  E  Q.   Q    
----2--0--------2--0----|------------------------|----------0----0---|
-0--3--0--3--0--3--0--3-|-0-----3----------------|----0--0--0----0---|
-0--------2--0--------2-|-2--------2-----0-----2-|(2)-------1----1---|
-2----------------------|-0----------------------|-2--------0----0---|
-0----------------------|------------------------|----------2----2---|
------------------------|------------------------|----------0----0---|

 E  E  E  E  E  E  E  E   E  E  E  E  E  E  E  E   E  E  E  E  E  E  E  E  
----2--0--------2--0----|----2--0--------2--0----|------------------------|
-0--3--0--3--0--3--0--3-|-0--3--0--3--0--3--0--3-|-0--------3-----0-----3-|
-0--------2--0--------2-|-2--------2--2--------2-|-2--------2-----2-----2-|
-2----------------------|-0--------0--------0----|-4--------4--------4----|
-0--------0--------0----|------------------------|-2--------2--------2----|
------------------------|------------------------|------------------------|

 E  E  E  Q    E  E  E   E  E  E  E  E  E  E  E   E  E  E  E  E  E  E  E   
----0--0---------------|-0--------0-------------|-------------------5----|
(3)-0--0---------------|-0----------------------|----------------0-------|
(2)---------------0--2-|----------2-------------|-------------2----------|
-2--------2----4-------|-0--2--0--0-------------|-0-----0--2-------------|
-0---------------------|------------------------|------------------------|
----------0------------|------------------------|----0-------------------|

 E  E  E  E  E  E  E  E   E  E  E  E  E  E  E  E   E  E  E  E  E  E  E  E  
------------------------|----------------------0-|(0)---------------------|
-0-----1--3-----0-----0-|(0)-1--1--------0--1----|----3--3--------------3-|
-------2----------------|----------0--2----------|-------0--2--4--2--4----|
----2--------2----------|-0-----0----------------|----0-------------------|
-0--------0-------------|----0-------------------|------------------------|
------------------------|------------------------|-3----------------------|

 E  E  E  E  E  E  E  E   E  E  E  E  E  E  E  E   E  E  E  E  E  E  E  E 
------------------------|------------------------|----------------------0-|
(3)---------------------|-0-----1--3-----0-----0-|(0)-1--1--------0--1----|
-------------0----------|-------2----------------|----------0--2----------|
-------2--4-----4--2----|----2-------------------|-0-----0----------------|
----2-----------------2-|-0----------------------|----0-------------------|
-0----------------------|------------------------|------------------------|

CII                      CI
 E  E  E  E  E  E  E  E   E  E  E  E  E  E  E  E   E  E  E  E  E  E  E  E  
(0)-2-------------------|-------------1--0-------|------------------------|
----------3-------------|-------------3--1--3--1-|-0-----1--3-----0-----0-|
-------4--------4--2----|-1-----------------4--2-|-0-----2--4-----0-----0-|
----4--------4-----4----|-3----------------------|----2-------------------|
-2--------2-----------2-|-1--------1-------------|-3-----------------3----|
------------------------|------------------------|------------------------|

                         CIII                                              
E  E  E  E  E  E  E  E   E  E  E  E  E  E  E  E   E  E  E  E  E  E  E  E   
----------------------0-|------------------------|-------------0-----3----|
(0)-1--1--------0--1--1-|----3--3--------------3-|(3)---------------------|
(0)-2--2--------0--2----|----4--4-----------4----|(4)----------------0----|
-0-----0-----------0----|-------5--------5-------|-------2--4--2----------|
----0-------------------|----5--------5----------|----2-------------------|
------------------------|-3--------3-------------|-0----------------------|

CV                       CVII
 E  E  E  E  E  E  E  E   E  E  E  E  E  E  E  E E  E  E  E  E  E  E  E  
-5--7--------5--------5-|----7--7----------------|-5--7--------5--------5-|
-------5--8--------8----|----------8--------8----|-------5--8--------8----|
------------------------|----------7--------7----|------------------------|
------------------------|----------9--------9----|------------------------|
------------------------|-7--------7--------7----|------------------------|
-5--------5--------5----|----------0--------0----|-5--------5--------5----|

 E  E  E  E  E  E |__3__|  W  
----7--7----------10-7---|---------------------|
-------------8---------8-|-7-------------------|
----------7--------------|-7-------------------|
-------9-----------------|-9-------------------|
----7--------------------|-7-------------------|
-0-----------------------|-0-------------------|
Login or Register to remove this ad.