Ads

Serah's Theme (Final Fantasy XIII) Guitar Tab

Submitted: Oct 07, 2010 by rurouni ainxi (Last updated: Oct 07, 2010)

4
Average: 4 (4 votes)
Download | Listen
Game: Final Fantasy XIII
Composer(s): Masashi Hamauzu
Style: Transcription
Series: Final Fantasy

AutoScroll: Slow | Medium | Fast
Song Title:Serah's Theme
Game:Final Fantasy XIII
Year:2010
Console:PS3;Xbox 360
Composer: Masashi Hamauzu
Tabber:Rurouni Ianxi

Tuning:Standard
Capo:0


E|-7-8-7-5---------------------|
B|----------8------8-6-5-------|
G|-------------5---------7-7s9-|
D|-----------------------------|
A|-----------------------------|
E|-----------------------------|


E|-----------------------------|
B|-------8------------8--------|
G|-----5---7~------5----7-7s9--|
D|-7-9---------7-9-------------|
A|-----------------------------|
E|-----------------------------|


E|-7-8-7-5---------------------|
B|----------8------8-6-5-------|
G|-------------5---------7-7s9-|
D|-----------------------------|
A|-----------------------------|
E|-----------------------------|


E|----------------5------------|
B|-------8-----8---------------|
G|-----5---7~------------------|
D|-7-9-------------------------|
A|-----------------------------|
E|-----------------------------|


E|-8--7-5-------8--7-8-10------|
B|--------8----------------8---|
G|-----------5-----------------|
D|-----------------------------|
A|-----------------------------|
E|-----------------------------|


E|11-10-8----------8-10-11-8---|
B|---------11--8-11------------|
G|-----------------------------|
D|-----------------------------|
A|-----------------------------|
E|-----------------------------|
Login or Register to remove this ad.

7 comments on Serah's Theme

thanks

thanks to hslesperance for fixing up the parts i missed.

flat

this is great but it is slightly flat to the original. add 1 to each number and you're right on

Sounds fine to me, you sure

Sounds fine to me, you sure your guitar is tuned?

You got a problem with the

You got a problem with the numbers.

E|----------------5------------|
B|-------8-----8---------------|
G|-----5---7~------------------|
D|-7-9-------------------------|
A|-----------------------------|
E|-----------------------------|

I think it should be

E|----------------5------------|
B|-------8-----8---------------|
G|-----6---8~------------------|
D|-7-9-------------------------|
A|-----------------------------|
E|-----------------------------| 

And follow up the same kind of error, I mean that same pattern is put in multiple times so hopefully you'll notice all of them and fix it, thanks tho, it's really good!:D

Your G string is out of tune.

Your G string is out of tune.

haaaaa

haaaaa

*****

5

***** this also sounds AWESOME when you play it one octave higher