Ads

Lightning's Theme (lower notes) (Final Fantasy XIII) Guitar Tab

Submitted: May 18, 2015 by thedstring (Last updated: May 20, 2015)

5
Average: 5 (4 votes)
Download | Listen
Game: Final Fantasy XIII
Composer(s): Masashi Hamauzu
Style: Arrangement, Fingerstyle, Natural harmonics
Series: Final Fantasy

AutoScroll: Slow | Medium | Fast
Lightning's Theme (lower notes)
Final Fantasy XIII

Composed by Masashi Hamauzu
Arranged by Nate Brooks (thedstring)
 ~~~~~~~~~~~~
Standard tuning
 ~~~~~~~~~~~~

                                                ___   ___
                                               | 3 | | 3 |
    Q             E     E     Q           S S  T T T T T T    H               Q       S  S  S  S
e||-2-------------0-----------------------------------------|-------------------------------3--5--|---------|
B||-3-------------------0-----0-----------1-0---------------|-0-----------------------3--5--------|---------|
G||-4-------------------------0----------------2-0----------|-0-----------------------------------|---------|
D||-2-------------------------2--------------------4-2-0----|-2-----------------------------------|---------|
A||---------------------------0--------------------------3--|-3-----------------------------------|---------|
E||---------------------------------------------------------|-1-----------------------------------|---------|


 E   E   S E   Q          E    S    E   E   S E   E   S S S S E   S    E   E   S E   Q      E    S S S
----------------------------------|----------------------------------|----------------------------------|
----------------------------------|----------------------------------|-----------------------------3----|
-----------0---2------------------|-----------0---2---2--------------|-----------0---2-----------2---0--|
---------0------------------------|---------0-----------4-0-2--------|-4-------0------------------------|
-----2----------------------------|-----2---------------------0------|-5---2----------------------------|
-0--------------------------------|-0-----------------------------3--|-0--------------------------------|


 E   E   S E   Q          E    S    E   E   S E   E    S E   E   E     E   E   S E   S E       E   S S
----------------------------------|-2--------------------0---5---3---|-2--------------------------------|
----------------------------------|---------0------------------------|-----------------0-------5---4-3--|
-----------0---2------------------|-----------0---2------------------|-----------0---2------------------|
-4-------0------------------------|---------0------------------------|---------0------------------------|
-5---2----------------------------|-----2----------------------------|-----2----------------------------|
-0--------------------------------|-0--------------------------------|-0--------------------------------|

                                                     
 E   E   S E   E   S S S S S S S    S S E   S E   Q       E   S S S    E   E   S S   E    S E   E   E
-------------------5-2---0--------|---------------------------3---3--|-2--------------------0---5---3---|
-2---------------------3-----3-2--|-0---0-----------------------1----|---------0------------------------|
-----------0---2-----------2------|---2-------0---2------------------|-----------0---2------------------|
---------0------------------------|---------0------------------------|---------0------------------------|
-----2----------------------------|-----2----------------------------|-----2----------------------------|
-0--------------------------------|-0--------------------------------|-0--------------------------------|


                                   NH
 E   E   S E   S Q       Q          E   E   S E   Q              S S   E   E   S E   S Q       Q
-2-----------------------0--------|<7>-------------------------------|-0---------------2-------3--------|
-----------------0----------------|---------0-1---3------------------|-1---------------3-------5--------|
-----------0---2------------------|----------------------------------|-0---------------2-------5--------|
---------0------------------------|-----2--------------------------2-|---------------0------------------|
-----2----------------------------|-0--------------------------------|---------2-3----------------------|
-0--------------------------------|----------------------------------|-----0----------------------------|


 Q       Q        E   E   E   E     E   S S Q       Q       S S S S    E   E   S E   E   S E   S S S S
-7--------------------------------|-----------------0-------5--------|-0-----------------------3---1----|
-5-------5----------------3---1---|-0-------0-----------------0------|---------------------3------------|
-5--------------------2-----------|-0---------------------------2-0--|---------2-0---2------------------|
-5----------------4---------------|-2---1-2--------------------------|-2-------------------------3-2-0--|
-0--------------------------------|----------------------------------|-----3----------------------------|
----------------------------------|-3--------------------------------|-1--------------------------------|


 S E   S Q       Q       S S S S    Q       Q       E   S S S S S S    Q       Q       E   S S S S S S
-0--------------------------------|----------------------------------|----------------------------------|
-0-------0-------3-------1--------|-1-----------------------0-1-0----|-----------------------0-1-3-1----|
-0---------------4---------0------|---------2-----------0-2-------0--|-2-------------------2---------2--|
-------0-2-------------------3-2--|----------------------------------|----------------------------------|
---2-------------3----------------|-0-------3-------0-------3--------|-0-------0-------0-------0--------|
----------------------------------|----------------------------------|-1-------1-------1-------1--------|


 E   S E   S E   E   S E   S E      E   S E   S E   E   E   S S S S    E   E   S E   E   S E   E   E
-------0-----0---0-----0-----0----|-------0-----0---0---------0-2-3--|-5-------0-----5---------0--------|
-0-----2-----2---------2-----2----|-0-----0-----0---0-------3--------|-0---3---0-3---0-----3---0---3----|
-------2-----2---------2-----2----|-------2-----2---2----------------|-----4-----4---------4---0---4----|
----------------------------------|----------------------------------|----------------------------------|
-----4-----4---------4-----4------|-----4-----4---------4---2---2----|-3---3---3-3---3---3-----3---3----|
----------------------------------|----------------------------------|----------------------------------|


 E   E   S E   E    E   E   E       E   E   S E   E   S E   E   E      E   E   S E   E   S S S S E   S
-5-------0-----0------------------|-5-------0-----5---------0--------|-0-------------------------0---3--|
-0---3---0-3----------------3-----|-0---3---0-3---0-----3---0---3----|---------------0---1---3-------3--|
-----4-----4---0--------0---------|-----4-----4---------4-------4----|---------0-2---0------------------|
---------------2----4---0---0-----|----------------------------------|-2---4-------------------0-----0--|
-2---2---2-2----------------------|-3---3---3-3---3---3-----3---3----|-2---2---2-2----------------------|
---------------0----0-------------|----------------------------------|---------------0-----0------------|


 E   E   S E   E   S E   E   S S    S S S S S S S S E   E   E   E      Q       S S S S Q       Q
----------------------------------|-----------0-2-3------------------|----------------------------------|
-3-------------3-------------0-1--|-3-------3-------0---3-------0----|---------0-----0------------------|
-2---0---2-0---2-----0---2--------|-2---0-2-------------0------------|-2-----------2-----------0--------|
-----0---2-0---------0---2--------|---0---------------------0--------|-----------2-----2-------2--------|
-3---3---3-3---3---3-----3--------|-2---------------------------2----|-4-----------------------4--------|
----------------------------------|-----------------0----------------|----------------------------------|


 Q       S S S S Q       Q          Q       Q       Q       E   S S    E   E   S S S S S S S S S S S S
-----------------0----------------|----------------------------------|-----------------1----------------|
---------0-----0------------------|---------0-------3-----------1-0--|-------------------------4--------|
-2-----------2-----------0--------|-2---------------2----------------|-3---------0-2-3---3-------0---0--|
-----------2-------------2--------|-2-------2-------0----------------|---------3-------------0-----0----|
-3--------------------------------|-3-------0-------2-----------3----|-----1---------------3------------|
----------------------------------|----------------------------------|----------------------------------|


 E   E   S E   S Q       S S S S    E   E   S E   E   S S S S E   S    E   E   S E   Q       E   S S S
-----------------------------1----|----------------------------------|-----------------------------1----|
-3-------------1-3---------1---4--|-3-------------1---1--------------|---------------1-----------1------|
-----------3----------------------|-----------3---------2---0-----3--|-2---------3-------------------3--|
-----0---3------------------------|-----0---3-------------3----------|-----0---3---------------------0--|
----------------------------------|---------------------------3------|----------------------------------|
-3--------------------------------|-3--------------------------------|-3--------------------------------|


 E   E   S E   Q    E    H
-----------------------|-0---|----||
---------------1-------|-1---|----||
-2---------3-----------|-0---|----||
-----0---3-------------|-3---|----||
-----------------------|-3---|----||
-3---------------------|-----|----||
Login or Register to remove this ad.

2 comments on Lightning's Theme (lower notes)

This is the lower version of

This is the lower version of one I already did, you don't ever need to go up to "fret 10" like I said in the description. I accidentally left if in when I submitted this new version.

The other version sounds more accurate but is nearly impossible to play.

After all this time I never

5

After all this time I never noticed! I forgot to mention capo fret 7!

This "Lower Notes" version has some voicing played much lower so you don't have to go up to fret 17 (10 plus capo 7) but it was still intended to be in the same key, put that capo on guys!