Ads

Hope's Theme (Final Fantasy XIII) Guitar Tab

Submitted: Mar 16, 2016 by quinndangle2

5
Average: 5 (4 votes)
Download | Listen
Game: Final Fantasy XIII
Composer(s): Masashi Hamauzu
Style: Arrangement, Fingerstyle
Series: Final Fantasy

AutoScroll: Slow | Medium | Fast
Hope's Theme
From Final Fantasy XIII
Composed by Masashi Hamauzu
Arranged by Brent Quinn

Standard Tuning
Tempo ~85 bpm
3/4 time


   Q.    E   Q      Q    Q    Q      H     Q      H.       Q.    E   Q      Q    Q    Q
E|-------0---2----|-0--------------|------------|--------|----------------|----------------|
B|-3--------------|----------------|-0---5g7----|-7------|-0-----2---3----|-2----0---------|
G|-4--------------|------7----6----|-2----------|-7------|----------------|-2---------2----|
D|-4--------------|-4--------------|-4----------|-4------|-4--------------|-4--------------|
A|-2--------------|-5--------------|-0----------|--------|-5--------------|-4--------------|
E|----------------|-6--------------|------------|-4------|-3--------------|-2--------------|


   Q    E   E   Q      Q    E   E   E   E     Q.    E   Q      Q.    E   Q      Q.    E   Q
E|--------------2----|----------2-----------|-------0---2----|-0--------------|---------0g2----|
B|-0----2s--3--------|-2----2-------2-------|-3---------0----|-0--------------|-0-----3--------|
G|------3s--4--------|-3----------------3---|-0---------4----|-------7---6----|-2--------------|
D|-4-----------------|-4--------------------|-2---------5----|-4---------4----|-4--------------|
A|-5-----------------|-4--------------------|----------------|-----------5----|-0--------------|
E|-3-----------------|-2--------------------|-0--------------|-6---------6----|----------------|


   Q    E   E   Q      Q.    E   Q      Q    Q    Q      Q.    S  S  E   E     Q    Q    Q 
E|-2----5p--2--------|----------------|----------------|-------------2-------|----------------|
B|-2------------2----|-0-----2---3----|-2----0---------|-0-----2--3------3---|-----------3----|
G|-2-----------------|-0--------------|-2---------2----|-4-------------------|-4---------4----|
D|-4-----------------|-2--------------|-4--------------|-0-------------------|------4----4----|
A|-5-----------------|-2--------------|-4--------------|-2-------------------|-----------2----|
E|-------------------|-0--------------|-2--------------|---------------------|----------------|


   E   E   Q    Q      E   E   Q    Q      E   E   E   E   Q      E   E   Q    Q
E|-0-----------------|-0------------7----|-5--------------------|-------------------|
B|-0-------2----3----|-0-------3----0----|-0-------0---3---0----|-3-------2----3----|
G|-0-------0----4----|-0-----------------|----------------------|-4-------0----0----|
D|-----4-------------|-----4--------4----|-0---4----------------|-----4--------4----|
A|-------------------|-------------------|----------------------|-------------------|
E|-3------------3----|-3------------3----|-3--------------------|-3------------3----|


   E   E   Q    Q      E   E   Q    Q      H.       Q    Q    Q      E   E   Q    Q
E|-0-----------------|-0------------10---|-9------|-5----2---------|-0-----------------|
B|-2-------2----3----|-2-------2---------|-7------|-3---------3----|-0-------2----3----|
G|-2-------2----2----|-2-------2---------|-7------|-2---------4----|-0-------0----4----|
D|-----0--------0----|-----0-------------|--------|-4---------4----|-----4-------------|
A|-2------------2----|-2-----------------|--------|-2---------2----|-------------------|
E|-------------------|-------------------|-7------|----------------|-3------------3----|


   E   E   Q    Q      E   E   E   E   Q      E   E   Q    Q      E   E   E   E   E   E
E|-0------------7----|-5--------------------|-0-------5----9----|-10----------------------|
B|-0-------3----0----|-0-------0---3---0----|-0-------3----7----|-7---------------7-------|
G|-0-----------------|----------------------|-4---0---2----6----|-7-----------7-------7---|
D|-----4--------4----|-0---4----------------|-------------------|---------7---------------|
A|-------------------|----------------------|--------------0----|-----9-------------------|
E|-3------------3----|-3--------------------|-3-----------------|-7-----------------------|


   E   E   E   E   E   E     E   E   E   E   E   E     E   E   E   E   Q      E   E   E   E   E   E
E|-9-----------------------|-7-----------------------|-------------7--------|-------------0-----------|
B|-8---7-----------10------|-7-----------------------|-------------7---7----|-0-----------------------|
G|---------7---9---7-------|-7---------------7-------|---------7-------7----|-------------------------|
D|---------------------7---|-9---7-------7-------7---|-----9---9------------|-0-------0---4---0-------|
A|-------------------------|---------9---------------|-----9----------------|-----2---------------2---|
E|-7-----------------------|-7-----------------------|-7--------------------|-4-----------------------|


   Q    E    Q      E   E   E   E   E   E     Q    Q    Q      E   E   E   E   E   E
E|-0--------------|-0-----------------------|----------------|-------------------------|
B|-0----2----3----|-------------2-----------|-2----3----2----|-0-----------3-----------|
G|-4----2----4----|---------0-------0-------|------4----2----|-4---------------4-------|
D|-4--------------|-----2---------------2---|-2--------------|-0---0---4---0-------4---|
A|-----------2----|-0-----------------------|-0---------0----|-2-----------------------|
E|-4--------------|-------------------------|----------------|-------------------------|


   Q    Q    Q      E   E   E   E   Q      E   E   E   E   Q      E   E   E   E   E   E
E|----------------|-5--------------------|-2--------------------|-------------3---0-------|
B|-3----2----3----|-3-------0---3---0----|-3-----------3--------|-0-------0-----------0---|
G|-----------4----|----------------------|-4-------4-------4----|-4---0-------------------|
D|------4---------|-4---4----------------|-4---4----------------|-----5---2---------------|
A|-2--------------|-2--------------------|-2--------------------|-------------------------|
E|----------------|----------------------|----------------------|-0-----------------------|


   Q    Q    Q      E   E   E   E   Q      E   E   E   E   Q      E   E   E   E   Q
E|-3--------------|----------------------|-5---------------2----|-7---------------7----|
B|-0----2----3----|-5-----------2--------|-2-----------2---2----|-7---------------7----|
G|-0----2----4----|-2-------2-------2----|---------2-------2----|-------------7--------|
D|-2----2---------|----------------------|-----------------4----|-9-------9------------|
A|-----------2----|-----4----------------|-----4----------------|-----9----------------|
E|-0--------------|-2--------------------|-2--------------------|-7--------------------|


   E   E   E   E   Q      E   E   E   E   Q      H.
E|<7>----------0--------|<7>-------------------|-0------|
B|---------0-------0----|-------------7--------|-0------|
G|----------------------|-------------7--------|-9------|
D|-----6----------------|-9-------9-------9----|-6------|
A|----------------------|-----9----------------|-7------| 
E|-0--(7)---------------|-7--------------------|-0------|


//Key//
<7> natural harmonic
(7) ghost (optional) note
 s  slide
 p pull-off
 g grace note
 . Dotted note (extend duration)

 H Half note
 Q Quarter Note
 E Eighth note
 S Sixteenth Note

Login or Register to remove this ad.

2 comments on Hope's Theme

Now that's a great one

5

Now that's a great one

I like this =)

5

I like this =)