Ads

A Song for Time (Duet) (Final Fantasy XIII-2) Guitar Tab

Submitted: May 25, 2012 by thedstring (Last updated: May 29, 2012)

5
Average: 5 (2 votes)
Download | Listen
Game: Final Fantasy XIII-2
Composer(s): Naoshi Mizuta, Masashi Hamauzu, Mitsuto Suzuki
Style: 2 or more instruments, Fingerstyle
Series: Final Fantasy

This song is also called Yeul's Theme

AutoScroll: Slow | Medium | Fast
Time Song (Yeul's Theme)
Final Fantasy XIII-2
Composed by Masashi Hamauzu, Naoshi Mizuta, Mitsuto Suzuki
Arranged by thedstring (Nate Brooks)

This is a duet. Scroll down for the second guitar


Standard tuning, capo fret 3

                                                        
E |--3-----------------1--------------------3s-5-------|
B |--------------3-------------------------------------|
G |--------2-----------------------2-------------------|
D |--0~----------------0-------------------------------|
A |----------------------------------------------------|
E |----------------------------------------------------|

                                                                                
--0---------------------------------------------------0-1--|
--------------------------1-----------3--------------------|
--------------0--------------------------------------------|
-----------------------------------------------------------|
--1-----------------------------------1--------------------|
-----------------------------------------------------------|

                                                     
|--0-------------------------|----------------------------|
|-----------3-----------1----|--0--------0-----------0----|
|--------2-------------------|-----------2--------2-------|
|-----0----------------------|--------0--------0----------|
|--2--------2----------------|-----2----------------------|
|----------------------------|--0-------------------------|

                               
---------------------------|----------------------------|
---------------------------|--------1-----1-------------|
--1------------------------|--------0-----0-------------|
--0------------------------|-----2-----2----------------|
--2------------------------|--0-------------------------|
--0------------------------|----------------------------|


----------------------------|----------------------------|
--------1-----1-------------|--------1-----1-------------|
--------0-----0-------------|--------0-----0-------------|
-----2-----2----------------|-----2-----2----------------|
--0-------------------------|--0-------------------------|
----------------------------|----------------------------|


----------------------------|----------------------------|
--------1-----1-------------|--------1-----1-------------|
--------0-----0-------------|--------2-----2-------------|
-----2-----2----------------|-----2-----2----------------|
--0-------------------------|----------------------------|
----------------------------|--1-------------------------|


----------------------------|----------------------------|
--------1-----1-------------|--------1-----1-------------|
--------2-----2-------------|--------0-----0-------------|
-----2-----2----------------|-----2-----2----------------|
----------------------------|--0-------------------------|
--1-------------------------|----------------------------|


----------------------------|----------------------------|
--------1-----1-------------|--------1-----1-------------|
--------0-----0-------------|--------2-----2-------------|
-----2-----2----------------|-----2-----2----------------|
--0-------------------------|----------------------------|
----------------------------|--1-------------------------|


----------------------------|----------------------------|
--------1-----1-------------|--------0-----0-------------|
--------2-----2-------------|--------0-----0-------------|
-----2-----2----------------|-----0-----0----------------|
----------------------------|----------------------------|
--1-------------------------|--1-------------------------|


----------------------------|----------------------------|
--------3-----3-------------|--------1-----1-------------|
--------4-----4-------------|--------0-----0-------------|
-----3-----3----------------|-----2-----2----------------|
----------------------------|--0-------------------------|
--4-------------------------|----------------------------|


----------------------------|----------------------------|
--------1-----1-------------|--------0-----0-------------|
--------0-----0-------------|--------2-----2-------------|
-----2-----2----------------|-----1-----1----------------|
----------------------------|----------------------------|
--3-------------------------|--2-------------------------|


----------------------------|----------------------------|
--------4-----4-------------|--------3-----3-------------|
--------4-----4-------------|--------4-----4-------------|
-----4-----4----------------|-----3-----3----------------|
--0-------------------------|----------------------------|
----------------------------|--4-------------------------|


----------------------------|----------------------------|
--------1-----1-------------|--------1-----1-------------|
--------1-----1-------------|--------0-----0-------------|
-----0-----0----------------|-----2-----2----------------|
----------------------------|--0-------------------------|
--0-------------------------|----------------------------|


----------------------------|----------------------------|
--------1-----1-------------|--------1-----1-------------|
--------0-----0-------------|--------2-----2-------------|
-----2-----2----------------|-----2-----2----------------|
--0-------------------------|----------------------------|
----------------------------|--1-------------------------|


----------------------------|----------------------------|
--------1-----1-------------|--------1-----1-------------|
--------2-----2-------------|--------0-----0-------------|
-----2-----2----------------|-----2-----2----------------|
----------------------------|--0-------------------------|
--1-------------------------|----------------------------|


----------------------------|----------------------------|
--------1-----1-------------|--------1-----1-------------|
--------0-----0-------------|--------2-----2-------------|
-----2-----2----------------|-----2-----2----------------|
--0-------------------------|----------------------------|
----------------------------|--1-------------------------|


----------------------------|----------------------------|
--------1-----1-------------|--------0-----0-------------|
--------2-----2-------------|--------0-----0-------------|
-----2-----2----------------|-----0-----0----------------|
----------------------------|----------------------------|
--1-------------------------|--1-------------------------|


----------------------------|----------------------------|
--------3-----3-------------|--------1-----1-------------|
--------4-----4-------------|--------0-----0-------------|
-----3-----3----------------|-----2-----2----------------|
----------------------------|--0-------------------------|
--4-------------------------|----------------------------|


----------------------------|----------------------------|
--------1-----1-------------|--------0-----0-------------|
--------0-----0-------------|--------2-----2-------------|
-----2-----2----------------|-----1-----1----------------|
----------------------------|----------------------------|
--3-------------------------|--2-------------------------|


----------------------------|----------------------------|
--------4-----4-------------|--------3-----3-------------|
--------4-----4-------------|--------4-----4-------------|
-----4-----4----------------|-----3-----3----------------|
--0-------------------------|----------------------------|
----------------------------|--4-------------------------|


----------------------------|--------------0-------------|
--------1-----1-------------|--------1-----------1-------|
--------1-----1-------------|-----------0-----0----------|
-----0-----0----------------|-----2-----------------2----|
----------------------------|--0-------------------------|
--0-------------------------|----------------------------|


--------------0-------------|--------------0-------------|
--------1-----------1-------|--------1-----------1-------|
-----------0-----0----------|-----2-----2-----2----------|
-----2-----------------2----|-----------------------2----|
--0-------------------------|----------------------------|
----------------------------|--1-------------------------|


--------------0-------------|----------------------------|
--------1-----------1-------|--------------3-------------|
-----2-----2-----2----------|--------0-----------0-------|
-----------------------2----|-----3-----3-----3-----3----|
----------------------------|--1-------------------------|
--1-------------------------|----------------------------|


----------------------------|----------------------------|
--------------3-------------|--------0-----0-----0-------|
--------0-----------0-------|--------2-----2-----2-------|
-----3-----3-----3-----3----|-----0-----0-----0-----0----|
--1-------------------------|----------------------------|
----------------------------|--0-------------------------|


----------------------------|--------------0-------------|
--2--------2--1-------------|--------1-----------1-------|
--------2-----------1-------|-----------0-----0----------|
-----3-----------2-----2----|-----2-----------------2----|
----------------------------|--0-------------------------|
--4-----------0-------------|----------------------------|


--------------0-------------|--------------0-------------|
--------1-----------1-------|--------1-----------1-------|
-----------0-----0----------|-----2-----2-----2----------|
-----2-----------------2----|-----------------------2----|
--0-------------------------|----------------------------|
--------------3-------------|--1-------------------------|


----------------------------|----------------------------|
--------------6-------------|--------------1-------------|
--------5-------------------|--------0-----------0-------|
-----6-----6-----6----------|-----2-----2-----2-----2----|
----------------------------|----------------------------|
--4-------------------------|--3-------------------------|


----------------------------|--------------0-------------|
--------------1-------------|--------------------1-------|
--------0-----------0-------|--------0--------0-----0----|
-----2-----2-----2-----2----|-----2-----2----------------|
----------------------------|--3-------------------------|
--3-------------------------|----------------------------|


--------------0-------------|----------------------------||
--------------------0-------|--------1-----1-------------||
--------0--------0-----0----|--------0-----0-------------||
-----2-----2----------------|-----2-----2----------------||
--3-------------------------|--0-------------------------||
--------------3-----0-------|----------------------------||

Repeat from the usual spot.  There's a bit more to the song,
but this is the majority of it.



Here's the voice part that plays over top.
I may do a 1 guitar version soon.

also capo fret 3

E |----|----|----|----|----|----|----------------------------|
B |----|----|----|----|----|----|--------------------0-------|
G |----|----|----|----|----|----|-----------------------2----|
D |----|----|----|----|----|----|----------------------------|
A |----|----|----|----|----|----|----------------------------|
E |----|----|----|----|----|----|----------------------------|


----------------------------|--0-------------------------|-------|
--0-----------------1--3----|-----------0-----------0----|-------|
----------------------------|--------------2-------------|--2----|
----------------------------|----------------------------|-------|
----------------------------|----------------------------|-------|
----------------------------|----------------------------|-------|


----------------------------|----------------------------|
--------------------0-------|--0-----------------1--3----|
-----------------------2----|----------------------------|
----------------------------|----------------------------|
----------------------------|----------------------------|
----------------------------|----------------------------|


--0--------------------5----|--3----|----------------|----------------|
-----------0----------------|-------|-----------1----|--3--------0----|
--------------2-------------|-------|----------------|----------------|
----------------------------|-------|----------------|----------------|
----------------------------|-------|----------------|----------------|
----------------------------|-------|----------------|----------------|


--1--------3----|-------|-----------0----|-------|----------------|--0L---|
----------------|--3----|--------1-------|--0----|--------1--0----|-------|
----------------|-------|----------------|-------|----------------|-------|
----------------|-------|----------------|-------|----------------|-------|
----------------|-------|----------------|-------|----------------|-------|
----------------|-------|----------------|-------|----------------|-------|


--0-------------------------|----------------------------|
--------------------0-------|--0-----------------1--3----|
-----------------------2----|----------------------------|
----------------------------|----------------------------|
----------------------------|----------------------------|
----------------------------|----------------------------|


--0-------------------------|-------|----------------------------|
-----------0-----------0----|-------|--------------------0-------|
--------------2-------------|--2----|-----------------------2----|
----------------------------|-------|----------------------------|
----------------------------|-------|----------------------------|
----------------------------|-------|----------------------------|


----------------------------|--0--------------------5----|--3----|
--0-----------------1--3----|-----------0----------------|-------|
----------------------------|--------------2-------------|-------|
----------------------------|----------------------------|-------|
----------------------------|----------------------------|-------|
----------------------------|----------------------------|-------|


----------------|----------------|--1--------3----|-------|-----------0----|
-----------1----|--3--------0----|----------------|--3----|--------1-------|
----------------|----------------|----------------|-------|----------------|
----------------|----------------|----------------|-------|----------------|
----------------|----------------|----------------|-------|----------------|
----------------|----------------|----------------|-------|----------------|


-------|----------------|--0L---|--0-------------|--7--------8----|
--0----|--------1--0----|-------|-----------5----|----------------|
-------|----------------|-------|----------------|----------------|
-------|----------------|-------|----------------|----------------|
-------|----------------|-------|----------------|----------------|
-------|----------------|-------|----------------|----------------|


----------------|--3--------5----|-------|----------------------------|
--5--------1----|----------------|--5----|--------------6--5-----3L---|
----------------|----------------|-------|----------------------------|
----------------|----------------|-------|----------------------------|
----------------|----------------|-------|----------------------------|
----------------|----------------|-------|----------------------------|


----------------------------------------------------|
--3-----5h-6--6-----------------------3-------------|
----------------------------------------------------|
----------------------------------------------------|
----------------------------------------------------|
----------------------------------------------------|


--1-----------------1h-0----|--0--------------------0----|--7--------8----|
----------------------------|----------------------------|----------------|
----------------------------|----------------------------|----------------|
----------------------------|----------------------------|----------------|
----------------------------|----------------------------|----------------|
----------------------------|----------------------------|----------------|


----------------|--5--------7----|--8----|----------------|--1--0----------|
--5--------5----|----------------|-------|-----1-----3----|--------1--3----|
----------------|----------------|-------|----------------|----------------|
----------------|----------------|-------|----------------|----------------|
----------------|----------------|-------|----------------|----------------|
----------------|----------------|-------|----------------|----------------|


-------|----|----||
--1----|----|----||
-------|----|----||
-------|----|----||
-------|----|----||
-------|----|----||
Login or Register to remove this ad.

4 comments on A Song for Time (Duet)

sweeeeeeet

5

sweeeeeeet

you're welcome =)

you're welcome =)

Oh, and the song isn't also known as Yeul's theme, there are actually 2 separate tracks that have identical guitar parts but different vocals, one that just hums the first part and one that sings words the whole time.

Ohh So it can be sing playing

Ohh So it can be sing playing the first part wahhh that's great -(^_^)- TYVM

I just submitted a single

I just submitted a single classical guitar version. The chords are very deep, yet, not too difficult. I hope it shows up soon