Ads

A Song for Time (Final Fantasy XIII-2) Guitar Tab

Submitted: Feb 17, 2014 by Yotolo

5
Average: 5 (1 vote)
Download | Listen
Game: Final Fantasy XIII-2
Composer(s): Naoshi Mizuta, Masashi Hamauzu, Mitsuto Suzuki
Style: Arrangement, Fingerstyle
Series: Final Fantasy

This song is also called Yeul's Theme

AutoScroll: Slow | Medium | Fast
Title: A Song for Time
Artist: Masashi Hamauzu


No Capo

E|-5-----------3--------5--7----|-2-----------------2--3----|-2---------------------|
B|---------5--------------------|---------3---5-------------|-------------5-----3---|
G|-----4------------4-----------|-----2---------------------|---------4-------------|
D|-2----------------------------|---------------------------|-----2-----------------|
A|------------------------------|-3-----------3-------------|-4-----------4---------|
E|------------------------------|---------------------------|-----------------------|


E|------------------------------|--------|-----------------------|------------------------------|
B|-2-----------2-----------2----|--------|---------3-------3-----|---------3-------3----2-------|
G|-------------4-------4--------|-3------|---------2-------2-----|---------2-------2--------4---|
D|---------2-------2------------|-2------|-----4-------4---------|-----4-------4----------------|
A|-----4------------------------|-4------|-2---------------------|-2----------------------------|
E|-2----------------------------|-2------|-----------------------|------------------------------|


E|------------------------------|-2-------------------------|-----------------------|
B|-2------------------------5---|-------------2---------2---|---------3-------3-----|
G|---------7-------7----7-------|---------2-------4---------|-4---------------------|
D|-----4-------4----------------|-----4---------------------|-----4-------4---------|
A|-2----------------------------|-2-------------------------|-----------------------|
E|------------------------------|---------------------------|-3---------------------|


E|------------------------------|------------------------------|-2---------------------7---|
B|---------3-------3----2-------|-2------------------------5---|-------------2-------------|
G|---------4-------4--------4---|---------7-------7----7-------|---------2-------4---------|
D|-----4-------4----------------|-----4-------4----------------|-----4---------------------|
A|------------------------------|-2----------------------------|-2-------------------------|
E|-3----------------------------|------------------------------|---------------------------|


E|-5---------------------|-----------------------|---------------------------|-3-------------------------|
B|---------3-------3-----|---------3-------3-----|-5--------------------2----|---------2-------2----5----|
G|---------4-------4-----|---------4-------4-----|---------2-------2---------|---------------------------|
D|-----4-------4---------|-----4-------4---------|-----2-------2-------------|-----5-------5-------------|
A|-----------------------|-----------------------|---------------------------|---------------------------|
E|-3---------------------|-3---------------------|-3-------------------------|-6-------------------------|


E|-----------------------|----------------------2----|-----------------------|---------------------------|
B|-5---------------3-----|-----------------3---------|-2---------------2-----|---------6-------6---------|
G|---------2-------2-----|---------2-------2---------|---------4-------4-----|---------6-------7----6----|
D|-----4-------4---------|-----4-------4-------------|-----3-------3---------|-----6-------6-------------|
A|-2---------------------|---------------------------|-----------------------|-2-------------------------|
E|-----------------------|-5-------------------------|-4---------------------|---------------------------|


E|-2---------------------|------------------------------|-----------------------2---|
B|---------2-------5-----|---------3-------3----2-------|---------3-------3---------|
G|-----------------6-----|---------3-------3--------4---|---------3-------3---------|
D|-----5-------5---------|-----2-------2----------------|-----2-------2-------------|
A|-----------------------|------------------------------|---------------------------|
E|-6---------------------|-2----------------------------|-2-------------------------|


E|-9-----------------------10------|-2---------------2---------------|-5-----------------------7-------|
B|-----------------7---------------|---------3---------------3-------|---------3-------3---------------|
G|---------7-----------7-----------|-------------2-------2-----------|-----4-------4-------4-------4---|
D|-----9-------7---------------9---|-----4-----------------------4---|---------------------------------|
A|---------------------------------|-2-------------------------------|---------------------------------|
E|-7-------------------------------|---------------------------------|-3-------------------------------|


E|-2---------------2---------------|-----------------3---2-----------|----2--3---------------------------|
B|---------3---------------3-------|-----------------------------5---|-------------------5-------5-------|
G|-----4-------4-------4-----------|---------2-----------------------|-----------2---------------2-------|
D|-----------------------------4---|-----5-------5-----------5-------|-------5-------5-------5-------5---|
A|---------------------------------|-3-------------------------------|-3---------------------------------|
E|-3-------------------------------|---------------------------------|-----------------------------------|


E|-3-----------------------3-------|-2---------------------------2---|-9-----------------------10------|
B|---------2-------2-------2-------|-------------4---3---------------|-----------------7---------------|
G|---------4-------4-------4-------|---------4---------------3-------|---------7-----------7-----------|
D|-----2-------2-------2-------2---|-----5---------------4-------4---|-----9-------7---------------9---|
A|---------------------------------|---------------------------------|---------------------------------|
E|-2-------------------------------|-6---------------2---------------|-7-------------------------------|


E|-2-----------------------2-------|-7--------------------9----|-10--------------------|
B|---------3-----------------------|---------------------------|-----------------------|
G|-------------2-------2-----------|---------7-------7---------|---------7-------9-----|
D|-----4-----------------------4---|-----9-------9-------------|-----8-------8---------|
A|-2-------------------------------|---------------------------|-----------------------|
E|-----------------5---------------|-2-------------------------|-2---------------------|


E|---------------------------------|-3-------2-----------------------|-----------------2---------------|
B|---------3---------------5-------|-----------------3-------5-------|-3-----------------------3-------|
G|---------2-------2-------2-------|---------2---------------2-------|---------2-----------2-------2---|
D|-----4-------4-------4-------4---|-----4-------4-------4-------4---|-----4-------4-------------------|
A|---------------------------------|---------------------------------|-5-------------------------------|
E|-5-------------------------------|-5-------------------------------|---------------------------------|


E|-----------------2---------------|-----------------------|-----------------------|
B|-------------------------2-------|---------3-------3-----|---------3-------3-----|
G|---------2-----------2-------2---|---------2-------2-----|---------2-------2-----|
D|-----4-------4-------------------|-----4-------4---------|-----4-------4---------|
A|-5-------------------------------|-2---------------------|-2---------------------|
E|-----------------5-------2-------|-----------------------|-----------------------|


E|-----------------------|-----------------------|---------------2----|-12-----|-14-----|
B|---------3-------3-----|---------3-------3-----|--------------------|-14-----|-12-----|
G|---------4-------4-----|---------4-------4-----|---------2----------|-12-----|-11-----|
D|-----4-------4---------|-----4-------4---------|-----4--------------|-12-----|-12-----|
A|-----------------------|-----------------------|-2------------------|--------|--------|
E|-3---------------------|-3---------------------|--------------------|--------|--------|




Alternate Version - Capo 3

E|-3-----------1--------3--5----|-0-----------------0--1----|-0---------------------|
B|---------3--------------------|---------1---3-------------|-------------3-----1---|
G|-----2------------2-----------|-----0---------------------|---------2-------------|
D|-0----------------------------|---------------------------|-----0-----------------|
A|------------------------------|-1-----------1-------------|-2-----------2---------|
E|------------------------------|---------------------------|-----------------------|


E|------------------------------|--------|-----------------------|------------------------------|
B|-0-----------0-----------0----|--------|---------1-------1-----|---------1-------1----0-------|
G|-------------2-------2--------|-1------|---------0-------0-----|---------0-------0--------2---|
D|---------0-------0------------|-0------|-----2-------2---------|-----2-------2----------------|
A|-----2------------------------|-2------|-0---------------------|-0----------------------------|
E|-0----------------------------|-0------|-----------------------|------------------------------|


E|------------------------------|-0-------------------------|-----------------------|
B|-0------------------------3---|-------------0---------0---|---------1-------1-----|
G|---------5-------5----5-------|---------0-------2---------|-2---------------------|
D|-----2-------2----------------|-----2---------------------|-----2-------2---------|
A|-0----------------------------|-0-------------------------|-----------------------|
E|------------------------------|---------------------------|-1---------------------|


E|------------------------------|------------------------------|-0---------------------5---|
B|---------1-------1----0-------|-0------------------------3---|-------------0-------------|
G|---------2-------2--------2---|---------5-------5----5-------|---------0-------2---------|
D|-----2-------2----------------|-----2-------2----------------|-----2---------------------|
A|------------------------------|-0----------------------------|-0-------------------------|
E|-1----------------------------|------------------------------|---------------------------|


E|-3---------------------|-----------------------|---------------------------|-1-------------------------|
B|---------1-------1-----|---------1-------1-----|-3--------------------0----|---------0-------0----3----|
G|---------2-------2-----|---------2-------2-----|---------0-------0---------|---------------------------|
D|-----2-------2---------|-----2-------2---------|-----0-------0-------------|-----3-------3-------------|
A|-----------------------|-----------------------|---------------------------|---------------------------|
E|-1---------------------|-1---------------------|-1-------------------------|-4-------------------------|


E|-----------------------|----------------------0----|-----------------------|---------------------------|
B|-3---------------1-----|-----------------1---------|-0---------------0-----|---------4-------4---------|
G|---------0-------0-----|---------0-------0---------|---------2-------2-----|---------4-------5----4----|
D|-----2-------2---------|-----2-------2-------------|-----1-------1---------|-----4-------4-------------|
A|-0---------------------|---------------------------|-----------------------|-0-------------------------|
E|-----------------------|-3-------------------------|-2---------------------|---------------------------|


E|-0---------------------|------------------------------|-----------------------0---|
B|---------0-------3-----|---------1-------1----0-------|---------1-------1---------|
G|-----------------4-----|---------1-------1--------2---|---------1-------1---------|
D|-----3-------3---------|-----0-------0----------------|-----0-------0-------------|
A|-----------------------|------------------------------|---------------------------|
E|-4---------------------|-0----------------------------|-0-------------------------|


E|-7-----------------------8-------|-0---------------0---------------|-3-----------------------5-------|
B|-----------------5---------------|---------1---------------1-------|---------1-------1---------------|
G|---------5-----------5-----------|-------------0-------0-----------|-----2-------2-------2-------2---|
D|-----7-------5---------------7---|-----2-----------------------2---|---------------------------------|
A|---------------------------------|-0-------------------------------|---------------------------------|
E|-5-------------------------------|---------------------------------|-1-------------------------------|


E|-0---------------0---------------|-----------------1---0-----------|----0--1---------------------------|
B|---------1---------------1-------|-----------------------------3---|-------------------3-------3-------|
G|-----2-------2-------2-----------|---------0-----------------------|-----------0---------------0-------|
D|-----------------------------2---|-----3-------3-----------3-------|-------3-------3-------3-------3---|
A|---------------------------------|-1-------------------------------|-1---------------------------------|
E|-1-------------------------------|---------------------------------|-----------------------------------|


E|-1-----------------------1-------|-0---------------------------0---|-7-----------------------8-------|
B|---------0-------0-------0-------|-------------2---1---------------|-----------------5---------------|
G|---------2-------2-------2-------|---------2---------------1-------|---------5-----------5-----------|
D|-----0-------0-------0-------0---|-----3---------------2-------2---|-----7-------5---------------7---|
A|---------------------------------|---------------------------------|---------------------------------|
E|-0-------------------------------|-4---------------0---------------|-5-------------------------------|


E|-0-----------------------0-------|-5--------------------7----|-8---------------------|
B|---------1-----------------------|---------------------------|-----------------------|
G|-------------0-------0-----------|---------5-------5---------|---------5-------7-----|
D|-----2-----------------------2---|-----7-------7-------------|-----6-------6---------|
A|-0-------------------------------|---------------------------|-----------------------|
E|-----------------3---------------|-0-------------------------|-0---------------------|


E|---------------------------------|-1-------0-----------------------|-----------------0---------------|
B|---------1---------------3-------|-----------------1-------3-------|-1-----------------------1-------|
G|---------0-------0-------0-------|---------0---------------0-------|---------0-----------0-------0---|
D|-----2-------2-------2-------2---|-----2-------2-------2-------2---|-----2-------2-------------------|
A|---------------------------------|---------------------------------|-3-------------------------------|
E|-3-------------------------------|-3-------------------------------|---------------------------------|


E|-----------------0---------------|-----------------------|-----------------------|
B|-------------------------0-------|---------1-------1-----|---------1-------1-----|
G|---------0-----------0-------0---|---------0-------0-----|---------0-------0-----|
D|-----2-------2-------------------|-----2-------2---------|-----2-------2---------|
A|-3-------------------------------|-0---------------------|-0---------------------|
E|-----------------3-------0-------|-----------------------|-----------------------|


E|-----------------------|-----------------------|---------------0----|-12-----|-12-----|
B|---------1-------1-----|---------1-------1-----|--------------------|-12-----|-10-----|
G|---------2-------2-----|---------2-------2-----|---------0----------|-10-----|-9------|
D|-----2-------2---------|-----2-------2---------|-----2--------------|-12-----|-10-----|
A|-----------------------|-----------------------|-0------------------|--------|--------|
E|-1---------------------|-1---------------------|--------------------|--------|--------|
Login or Register to remove this ad.

1 comment on A Song for Time

Your version 2 is a lot like

5

Your version 2 is a lot like mine
http://www.gametabs.net/final-fantasy-xiii-2/song-for-time

I like the little things you did differently though =)