To the Place of the Gods (Final Fantasy XII) Guitar Tab

Submitted: Jan 03, 2011 by diralark (Last updated: Apr 10, 2013)

4.833335
Average: 4.8 (6 votes)
Download | Listen
Game: Final Fantasy XII
Composer(s): Nobuo Uematsu, Hitoshi Sakimoto
Style: Arrangement, Fingerstyle
Series: Final Fantasy

AutoScroll: Slow | Medium | Fast
                       To the Place of the Gods        [ from Final Fantasy XII ]

Music by Nobuo Uematsu, Hitoshi Sakimoto >> Sequenced by Thomas Christensen >> Arr. for solo guitar by Diralark                

OST : http://www.youtube.com/watch?v=e6kEO_Zq94Y

Credits : the unknown sequencer of this great orchestral midi file : 
http://www.vgmusic.com/music/console/sony/ps2/ffxii-to-the-place-of-the-...

Guitar, let ring, tempo 120, Capo 4

     E  E  E  E  E  E     E  E  E  E  E  E     E  E  E  E  E  E     E  E  E  E  E  E   
E||--------------------|--------------------|--------------------|--------------------|
B||--------------------|--------------------|--------------------|--------------------|
G||--------3-----------|--------3-----------|--------3-----------|--------3-----------|
D||-----3-----3-----3--|-----3-----3-----3--|-----3-----3-----3--|-----3-----3-----3--|
A||--1-----------1-----|--1-----------1-----|--1-----------1-----|--1-----------1-----|
E||--------------------|--------------------|--------------------|--------------------|


    I                    --                                                           
    E  E  E  E  E  E     E  E  E  E  E  E     E  E  E  E  E  E     E  E  E  E  E  E   
|------------4--------|-----------4--------|--------------------|--------------------|
|---1-----2-----1-----|--1-----2-----1-----|--1-----0--------1--|--1-----0-----1-----|
|*--------3-----------|--------3-----------|--------2-----------|--------2-----------|
|*-----3-----3-----3--|-----3-----3-----3--|-----2-----2-----2--|-----2-----2-----2--|
|---1-----------1-----|--1-----------1-----|--0-----------0-----|--0-----------0-----|
|---------------------|--------------------|--------------------|--------------------|


  I                    --                                           II              
  E  E  E  E  E  E     E  E  E  E  E  E     E  E  E  E  E  E     E  E  E  E  E  E   
-----------4--------|-----------4--------|-----------------0--|--0-----2-----4-----|
--1-----2-----1-----|--1-----2-----1--2--|--2-----4-----------|--------------------|
--------3-----------|--------3-----------|--------2-----------|--------2-----------|
-----3-----3-----3--|-----3-----3-----3--|-----2-----2-----2--|-----2-----2-----2--|
--1-----------1-----|--1-----------1-----|--0-----------0-----|--0-----------0-----|
--------------------|--------------------|--------------------|--------------------|


  I                    --                                                           
  E  E  E  E  E  E     E  E  E  E  E  E     E  E  E  E  E  E     E  E  E  E  E  E   
-----------4--------|-----------4--------|--------------------|--------------------|
--1-----2-----1-----|--1-----2-----1-----|--1-----0-----0--1--|--1-----0-----1-----|
--------------------|--------------------|--------------------|--------------------|
--------------------|--------------------|--------------------|--------------------|
--1-----1-----1-----|--1-----1-----1-----|--0-----0-----0-----|--0-----0-----0-----|
-----1-----1-----1--|-----1-----1-----1--|-----0-----0--------|-----0-----0-----0--|


                                                               1._______________
  I                    --                                                 SL        
  E  E  E  E  E  E     E  E  E  E  E  E     E  E  E  E  E  E     E  E  E  E  E  E   
-----------4--------|-----------4--------|-----------------0--|--0--2-----4--------|
--1-----2-----1-----|--1-----2-----1--2--|--2-----4-----------|--------------------|
--------------------|--------------------|--------------------|--------------------|
--------------------|--------------------|--------------------|--2--4-----6--------|
--1-----1-----1-----|--1-----1-----1-----|--0-----0-----0-----|--------0-----------|
-----1-----1-----1--|-----1-----1-----1--|-----0-----0-----0--|-----0-----0-----0--|


  Q    Q    Q       Q    Q    E  E     Q    Q    Q       Q    H        Q       E  E  E  E  E  E   
-----------------|------------------|-----------------|---------------------|--------------------|
-----------------|------------------|-----------------|---------------------|--------------0-----|
-----------------|------------------|-----------------|---------------------|--------------------|
-----------------|---------------1--|--4----0---------|---------------------|--------1--4-----1--|
-----------------|------------------|-----------------|---------------------|-----2--------------|
--4----4----4----|--4----4----4-----|--4----4----4----|--4----0-------------|--2-----------------|


                                            III                                                   
                                                                       ^                          
  E  E  E  E  E  E     E  E  E  E  E  E     E   E  E  E  E  E     Q    Q    Q       H.            
--------0-----------|--------------------|---------------------|-------5----0----|--5------------|
-----0--------0--4--|--------------------|---------4--------3--|--L----5---------|---------------|
--------------------|--------------3-----|------3--------3-----|-----------------|---------------|
--4--------4--------|--------0--3-----0--|--3---------3--------|-----------------|---------------|
--------------------|-----1--------------|---------------------|-------0---------|---------------|
--------------------|--1-----------------|---------------------|-------0---------|---------------|


                                                       2._______________
                                                            II                I                  
  ^                                                                                              
  H.               E    Q.     Q       H.                E  E  E  E  E  E     E  E  E  E  E  E   
--9------------|--11h--12-----------|----------------||--0-----2-----4-----|--1-----------------|
---------------|--------------------|----------------||--------------------|-----2--------------|
---------------|---------------9----|--L------------*||--------2-----------|--------3--2--------|
---------------|--------------------|---------------*||-----2-----2-----2--|--------------3-----|
--0------------|--------------------|----------------||--0-----------0-----|--1-----1-----3--4--|
---------------|--------------------|----------------||--------------------|--------------------|


  --                                                             I                  
  E  E  E  E  E  E     E  E  E  E  E  E     E  E  E  E  E  E     E  E  E  E  E  E   
--1-----------------|--0-----------------|--0-----------------|--1-----------------|
-----2--------------|-----1--------------|-----1--------------|-----2--------------|
--------3--2--1-----|--0-----2--1--------|--------2--1--------|--------3--2--------|
--------------3-----|--------------2-----|--2-----------2-----|--------------3-----|
--4--------------4--|-----------------3--|--------3--------3--|--1-----1-----3--4--|
--------------------|--------------------|--------------------|--------------------|


  --                                                                                 
                                                                   ^                 
  E  E  E  E  E  E     E  E  E  E  E  E     E  E  E  E  E  E       Q    E  E  E  E   
--1-----------------|--0-----------------|--0-----------0-----||--------------------|
-----2--------------|-----2--0-----2-----|--2--2--4-----------||--------------------|
--------3--2--1-----|--2-----2--1--------|--------2--1--------||*-------------------|
--------------3-----|--------------2-----|--------------2-----||*--1----4-----------|
--4--------------4--|-----------------4--|-----------------4--||---1-------------1--|
--------------------|--------------------|--------------------||---2-------1--2-----|


                     I                                                                        
                     ^                                    ^                                   
  E  E  Q    Q       Q    H           Q    E  E  E  E     E  E  E  E  Q       Q    Q    Q     
------------------|----------------|-------------------|-------------------|-----------------|
------------------|--1-------------|-------------------|--0-----0----------|-----------------|
-------------3----|--1----1--------|-------------------|-----3--1--3-------|------------1----|
--1--3--4---------|-------1--------|--L----------------|--1-----------4----|--L----1---------|
------------------|--3-------------|-------4--3--------|--2----------------|-----------------|
------------------|--4-------------|-------------4-----|--2----------------|-----------------|


                    1.______________     2.___________  Da Capo                                
  I                                                                                                 
                                                                        ^                           
  E  S S Q    Q       Q    Q    Q         Q    W                   Q    H           H        Q      
-------------------|------------------||------------------------|----------------|----------------||
---------2---------|------------------||--2---------------------|-------4--------|--L--------L----||
-------1-----------|-----------------*||------------------------|-------3--------|--L--------L----||
-------------------|-----------------*||------------------------|-------1--------|--L--------L----||
--4--4-------------|------------------||------------------------|--4----1--------|--L--------L----||
--1-----------4----|--2----1----------||--2----1----------------|----------------|----------------||

Legend
---------------
W - whole
H - half
Q - quarter
E - 8th
S - 16th
. - note dotted
L - tied note
h - hammer on
^ - brush up
Login or Register to remove this ad.

7 comments on To the Place of the Gods

Pretty Good

4

Giruvegan was such hell hole to travel through.

Nice tab! Wouldnt mind more FFXII stuff.

is that the reason you

is that the reason you submitted 4 instead of 5 stars ? :p

no. i just thought it could

no. i just thought it could be better hence 4/5.

Yay Woot!

5

Thank you sir, for tabbing an FFXII song!

I really love this game, and it is so underrated and under-tabbed. Even though a lot of the stuff kind of plays in the background, there is a lot of really cool moody stuff in XII. I would love to see more of this if'n you are up to it.

If possible, and I do not know what the name of the song is, could you tab out the piece that plays when you are in the Nam-Yensa and Ogir-Yensa sandseas? Those have a nice feel.

Also, I am really happy to see tabs like this one with polyphony. Thanks for taking the effort to tab it out and make it fairly ergonomic.

very well done, really

5

very well done, really captures the best of the original.

...by the by, your unknown sequencer is Thomas Christensen. which the site says two columns to the right of where you clicked on the midi...

Ooh yep true ! How i didnt

Ooh yep true ! How i didnt see that ? shame on me ^^ Thanks

well....I think it sounds

5

well....I think it sounds amazing. The 1 Barre on both sides is a little tough but....i mean what else can you do, it sonuds great and plays pretty weird but its good practice...