Seeking Power (Final Fantasy XII) Guitar Tab

Submitted: Jun 01, 2010 by Daugreano

5
Average: 5 (3 votes)
Download | Listen
Game: Final Fantasy XII
Composer(s): Nobuo Uematsu, Hitoshi Sakimoto
Style: Alternate picking, Transcription
Series: Final Fantasy

AutoScroll: Slow | Medium | Fast
Song: Seeking Power
Game: Final Fantasy XII
Composer: Hitoshi Sakimoto
Tabbed by: Daugreano

This is just the beginning...there is a few measures more than what i have, then it turns to
a faster "happier" part...which is about halfway through the song...


Guitar: 

   E   E   E   E   E   E   E   E     E   E   E   E   E   E   E   E     E   E   E   E   E   E   E   E
E|---------------------------------|---------------------------------|---------------------------------|
B|-12--0---10--0---8---0---7---0---|-5---0---8---0---7---0---2---0---|-12--0---10--0---8---0---7---0---|
G|---------------------------------|---------------------------------|---------------------------------|
D|---------------------------------|---------------------------------|---------------------------------|
A|---------------------------------|---------------------------------|---------------------------------|
E|---------------------------------|---------------------------------|---------------------------------|

   E   E   E   E   E   E   E   E     E   E   E   E   E   E   E   E     E   E   E   E   E   E   E   E
E|---------------------------------|---------------------------------|---------------------------------|
B|-5---0---8---0---7---0---2---0---|-3-------5-------2-------3-------|-0-------2-------3-------0-------|
G|---------------------------------|---------------------------------|---------------------------------|
D|---------------------------------|-----4-------4-------4-------4---|-----4-------4-------4-------4---|
A|---------------------------------|---------------------------------|---------------------------------|
E|---------------------------------|---------------------------------|---------------------------------|
                                                                  .
   E   E   E   E   E   E   E   E     E   E   E   E   E   E   E   S       E   E   E   E   E   E   E   E
E|---------------------------------|-----------------------------------|---------------------------------|
B|---------0-----------------------|-----------------------------------|-12--0---10--0---8---0---7---0---|
G|-2---------------0---------------|-----------------0-----------------|---------------------------------|
D|-----0-------0-------0---4---0---|-2---0---4---0-------0---2---0-----|---------------------------------|
A|---------------------------------|-----------------------------------|---------------------------------|
E|---------------------------------|-----------------------------------|---------------------------------|

   E   E   E   E   E   E   E   E     E   E   E   E   E   E   E   E     E   E   E   E   E   E   E   E
E|---------------------------------|---------------------------------|---------------------------------|
B|-5---0---8---0---7---0---2---0---|-12--0---10--0---8---0---7---0---|-5---0---8---0---7---0---2---0---|
G|---------------------------------|---------------------------------|---------------------------------|
D|---------------------------------|---------------------------------|---------------------------------|
A|---------------------------------|---------------------------------|---------------------------------|
E|---------------------------------|---------------------------------|---------------------------------|

   E   E   E   E   E   E   E   E     E   E   E   E   E   E   E   E     E   E   E   E   E   E   E   E
E|---------------------------------|---------------------------------|---------------------------------|
B|-3-------5-------2-------3-------|-0-------2-------3-------0-------|---------0-----------------------|
G|---------------------------------|---------------------------------|-2---------------0---------------|
D|-----4-------4-------4-------4---|-----4-------4-------4-------4---|-----0-------0-------0---4---0---|
A|---------------------------------|---------------------------------|---------------------------------|
E|---------------------------------|---------------------------------|---------------------------------|
                                .
   E   E   E   E   E   E   E   S
E|---------------------------------|
B|---------------------------------|
G|-----------------0---------------|
D|-2---0---4---0-------0---2---0---|
A|---------------------------------|
E|---------------------------------|


There is more after this so you may just want to repeat that familiar part that starts this tab...



Login or Register to remove this ad.

2 comments on Seeking Power

^_^

5

Nice one! tnx

muy bien hecho, tienes tus 5

5

muy bien hecho, tienes tus 5 estrellas