Boss Battle (Final Fantasy XII) Guitar Tab

Submitted: Oct 27, 2018 by Ranulf (Last updated: Oct 31, 2018)

5
Average: 5 (1 vote)
Download | Listen
Game: Final Fantasy XII
Composer(s): Nobuo Uematsu, Hitoshi Sakimoto
Style: Alternate picking, Arrangement, Transcription
Series: Final Fantasy

AutoScroll: Slow | Medium | Fast
Boss Battle
Final Fantasy XII
Playstation 2
Composed by Hitoshi Sakimoto & Arranged by Takeharu Ishimoto
Tabbed by Ranulf
10/27/2018


e||-------------------------------------------------------------------------------------------21v~~~~~~--
B||-------------------------------------------------------10------10--12--------------12-----------------
G||----------------------------9-----11--------13------9-------------------------------------------------
D||-----9--11--------12-----------9----------------11---------12--------------12-------------------------
A||--9---------------------------------------------------------------------------------------------------
E||------------------------------------------------------------------------------------------------------

                                                     PM PM
-----------------------------------------------------------
-----------------------------------------------------------
--4--5---4--7---4--9---11--12---9--7-----------------------
--4--5---4--7---4--9---11--12---9--7--------5--6--7--4--4--
--2--3---2--5---2--7----9--10---7--5--------5--6--7--4--4--
--------------------------------------------3--4--5--2--2--

  PM~~~~~~~~~~~~~~~~~~~~~~~~~~~~~~~~~~~~~~~~~~~~~~~~~~~~~~~~~~~~~~~~~~~~~~~~~~~~~~~~~~~~~~~~~~~~~~~~~~~~~~~~~~~~~~~~~~~~~~~
-----------------------------------------------------------------------------------------------------------------------------
-----------------------------------------------------------------------------------------------------------------------------
-----------------------------------------------------------------------------------------------------------------------------
--5--5----5--5----5--5----5--5----5-5-5-6-6-6-5-5-5----5--5----5--5-8-8-8-6-6-6-5-5-5-5-5-5----6--6----6--6----6--6----6--6--
-----------------------------------------------------------------------------------------------------------------------------
-----------------------------------------------------------------------------------------------------------------------------

  PM~~~~~~~~~~~~~~~~~~~~~~~~~~~~~~~~~~~~~~~~~~~~~~~~~~~~~~~~~~~~~~~~~~~~~~~~~~~~~~~~~~~~~~~~~~~~~~~~~~~~~~~~~~~~~~~~~~~~~~~~~~~~
----------------------------------------------------------------------------------------------------------------------------------
----------------------------------------------------------------------------------------------------------------------------------
----------------------------------------------------------------------------------------------------------------------------------
--6-6-6-7-7-7-6-6-6----6--6----6--6-9-9-9-7-7-7-6-6-6-6-6-6----5--5----5--5----5--5----5--5----5-5-5-6-6-6-5-5-5----5--5----5--5--
----------------------------------------------------------------------------------------------------------------------------------
----------------------------------------------------------------------------------------------------------------------------------

  PM~~~~~~~~~~~~~~~~~~~~~
-----------------------------------------12--17--10--------------------15--20--13----18----20----22b23----20--
-----------------------------12------12--------------------15------15-----------------------------------------
---------------------------------11----------------------------14---------------------------------------------
--8-8-8-6-6-6-5-5-5-5-5-5-------------------------------------------------------------------------------------
--------------------------------------------------------------------------------------------------------------
--------------------------------------------------------------------------------------------------------------

--13v~~~-13v~~~-13v~~~-16--15--13v~~~-13v~~~-16--15--13--12----11--13--11--13--13--13--12----11--13--11--13--13--13--12--
-----------------------------------------------------11--10-----9--11---9--11--11--11--10-----9--11---9--11--11--11--10--
-------------------------------------------------------------------------------------------------------------------------
-------------------------------------------------------------------------------------------------------------------------
-------------------------------------------------------------------------------------------------------------------------
-------------------------------------------------------------------------------------------------------------------------

--11--13--11--13--13--13--13v~~~-13v~~~----------------------------------------||
---9--11---9--11--11--11-------------------------------------------------------||
---------------------------------------------------------------8-----8--10-----||
------------------------------------------------10--12------8-----6---------8--||
--------------------------------------------------------10---------------------||
-------------------------------------------------------------------------------||
Login or Register to remove this ad.