Ads

The Grand Duchy of Jeuno (Final Fantasy XI) Guitar Tab

Submitted: Mar 06, 2014 by Ecteco (Last updated: Mar 07, 2014)

4.75
Average: 4.8 (4 votes)
Download | Listen
Game: Final Fantasy XI
Composer(s): Nobuo Uematsu, Kumi Tanioka, Naoshi Mizuta
Style: Arrangement, Fingerstyle
Series: Final Fantasy

AutoScroll: Slow | Medium | Fast
Title: The Grand Duchy of Jeuno
SubTitle: ~ Final Fantasy XI ~
Artist: Naoshi Mizuta
Tabber: Ecteco
Tempo = 50
December 14, 2013
Nylon Guitar

CAPO 1st Fret

E |-----------0----------|-----------0----------|--4-----4--4--0--2----|
B |--------0-----0-------|--------0-----0-------|----------------------|
G |-----1-----------1----|-----1-----------1----|----------------------|
D |----------------------|----------------------|----------------------|
A |----------------------|----------------------|--------2-------------|
E |--0-------------------|--0-------------------|--0--4----------------|


--4-----4--5--4--0----|-----------0-----2----|----------------------|
-----------5----------|--2-----2-----4-------|--2--------2-----0----|
-----1-----------1----|--------1-------------|--------1-------------|
----------------------|-----2----------------|-----2----------------|
--4-------------------|--0-------------------|--0-----------0-------|
----------------------|----------------------|-----------------0----|


----------------------|--0-----2--4--0-------|--7-----7--7-----5----|
--2-----2--4--2--0----|--------0--------0----|--------------8-------|
--------2-------------|-----1----------------|-----0--7-------------|
-----2----------------|--2-------------------|----------------------|
----------------------|----------------------|----------------------|
--2-------------------|----------------------|--8-------------------|


--7-----0--------2----|--4-----4--4--0--2----|--4-----4--5--4--0----|
--7-----------5-------|----------------------|-----------5----------|
-----------8----------|----------------------|-----1-----------1----|
-----7-----------1----|----------------------|----------------------|
--------------4-------|--------2-------------|--4-------------------|
-----------7----------|--0--4----------------|----------------------|


-----------0-----2----|----------------------|----------------------|
--2-----2-----4-------|--2--------2-----0----|--2-----2--4--2--4----|
--------1-------------|--------1-----1-------|--2-------------------|
-----2----------------|-----2----------------|--2-----2-------------|
--0-------------------|--0-------------------|-----4----------------|
----------------------|-----------------0----|--2-------------------|


--0-----2--4--0-------|--7-----5--3-----5----|--2-----------0--2----|
-----------------0----|-----------0----------|-----------4-----2----|
----------------------|--------------2-------|--2--------------2----|
----------------------|----------------------|--------4-------------|
----------------------|--0--7----------------|-----4----------------|
-----4-----------0----|----------------------|--2-------------------|


--0--------0----------|--0-----0--0----------|--0--------------0----|
--2-----------2--4----|-----------------3----|--0-----------0-------|
--1-----1-------------|--------------5-------|--1--------1----------|
-----------2----------|--4-----2--4----------|--------2-------------|
--0-------------------|-----0----------------|-----2----------------|
----------------------|----------------------|--0-------------------|


--4-----------0--2----|--4--0--4--4--2--0----|----------------------|
-----5----------------|-----4--------4--2----|--4--------------4----|
--------4--1----------|----------------------|-----4--1-----1-------|
-----------2----------|----------------------|-----------1----------|
----------------------|--4-------------------|----------------------|
----------------------|----------------------|--4-------------------|


--0-------------------|--------------0--2----|--4--0--4--4--2--0----|
-----4--2-----4--2----|--4--2--0--4--2--4----|-----4-----------2----|
-----------1----------|-----3----------------|----------------------|
----------------------|----------------------|--------------1-------|
--4-------------------|----------------------|--4-------------------|
----------------------|--4-------------------|----------------------|


----------------------|-----------0----------|--------------0--2----|
--4--1----------------|--1-------------------|--2--------2--2--4----|
--------3--1----------|-----------3-----1----|-----1----------------|
-----------------4----|-----4--1-----4-------|--------2-------------|
----------------------|-----------3----------|--4-------------------|
--4-------------------|--4-------------------|----------------------|


--4--0-----4--2--0----|----------------------|--0-------------------|
-----4--2-----4--2----|--4--0-----0-----4----|-----2--------4--2----|
----------------------|-----3--1-------------|-----4--3-------------|
----------------------|----------------------|-----------2----------|
--4-------------------|----------------------|--0-------------------|
----------------------|--4-------------------|----------------------|


----------------------|--0--------0-----0----|--4-----------0--4----|
--0-----------2--4----|--2-----------2-------|----------------------|
-----1----------------|--2--1----------------|-----1----------------|
--------2-------------|--------2-------------|--------2-------------|
-----------2----------|-----------4----------|--1--------4----------|
--0-------------------|--2--------2-----2----|----------------------|


--7--------0-----0----|--4--2----|--4-----4--4--0--2----|--4-----4--5--4--0----|
--5-------------------|-----4----|----------------------|----------------------|
--6-----------2-------|-----4----|----------------------|--4-------------------|
--------2-------------|----------|--------2-----2-------|----------------------|
--0--4----------------|--2--2----|-----2-----------2----|--------4-------------|
----------------------|----------|--0-------------------|-----4-----------4----|


-----------0-----2----|----------------------|----------------------|
--2-----2-----4-------|--2--------2-----0----|--2-----2--4--2--0----|
----------------------|--2-----2-----2--1----|--2--------------2----|
--------2-------------|-----2-----------2----|--------2-------------|
--0--4----------------|--0-------------------|-----4----------------|
----------------------|----------------------|--2-------------------|


--0-----2--4--0-------|--7-----3--3--3--5----|--7-----------0--2----|
--------0--------0----|--5-----5-------------|-----------4-----0----|
--1-------------------|--4-------------------|----------------------|
-----------------2----|-----5--0-------------|--4-----2--------1----|
-----2----------------|----------------------|-----4-----2--4-------|
--0-------------------|--------------3-------|----------------------|


--0-----4--4--0--2----|--4-----4--5--4--0----|-----------0-----0----|
-----0----------------|-----------5----------|--2-----------4-------|
----------------------|--4-------------------|--2-------------------|
-----2-----------2----|-----2-----------2----|-----2----------------|
----------------------|----------------------|--0-----4--0----------|
--0--------0----------|----------------------|----------------------|


----------------------|----------------------|--0-----2--4--0-------|
--2--------------0----|--2-----2--4--2--4----|--3--------------0----|
--2-------------------|--2-------------------|--2-------------------|
--2--2--2-----2-------|--2-------------------|--2--4----------------|
--0--------0----------|--4--0----------------|----------------------|
-----------------4----|--2--------4----------|-----------0----------|


--3-----5--3-----5----|--2-----------0-------|
--5-----5--5-----5----|--2--------4-----7----|
--5-----5--5-----5----|-----1----------------|
----------------------|--------4-------------|
-----2--0-------------|----------------------|
-----------3--2--0----|----------------------|


--------------0-----9--------------0----|
-----------------9-----9----------------|
--6--------6--------9-----9-------------|
--------6-----6--------------11---------|
--------------------------------11------|
--6-----------------------9-------------|


--12-------------0----------------------|
-----13----12-------12-10-8--10-8--7----|
--------12----12------------------------|
----------------------------------------|
----------------------------------------|
----------------------------------------|


-----------------0--4--0--7-----12------|--19------------------|
--0-----------0--------------9-----12---|----------------------|
----------------------------------------|-----------1L---------|
--6--------6----------------------------|----------------------|
----------------------------------------|-----------2L---------|
----------------------------------------|-----------0L---------|


----------------------||
----------------------||
--1-------------------||
----------------------||
--2-------------------||
--0-------------------||


Legend
L - tied note
x - dead note
h - hammer on/pull off
b - bend
s - slide
~ - vibrato
g - ghost note
> - accentuated note
t - trill
M - palm mute
. - staccato
P - popping (bass)
S - slapping (bass)
+ - tapping
W - wide vibrato
< - fade in
w - whammy bar
= - tremolo picking
v - brush up
^ - brush down
V - pick stroke up
n - pick stroke down
Login or Register to remove this ad.