Ads

Via Purifico (Final Fantasy X) Guitar Tab

Submitted: Jul 21, 2016 by quinndangle2

5
Average: 5 (9 votes)
Download | Listen
Game: Final Fantasy X
Composer(s): Nobuo Uematsu, Junya Nakano, Masashi Hamauzu
Style: Arrangement, Fingerstyle, Natural harmonics
Series: Final Fantasy

This song is also called Path of Repentance

AutoScroll: Slow | Medium | Fast
Via Purifico/Path of Repentance
From Final Fantasy X
Composed by Masashi Hamauzu
Arranged by Brent Quinn 

12/8 time
~145 bpm
Standard Tuning


   E   E   E   E   E   E   E   E   E   E   E   E     E   E   E   E   E   E   E   E   E   E   E   E
E|-4-----------4-----------4-----------4-----------|-4-----------4-----------4-----------4-----------|
B|---------2-----------2-----------2-----------2---|---------2-----------2-----------2---------------|
G|-----2-----------4-----------2-----------4-------|-----2-----------4-----------2-----------4s--6---|
D|-------------------------------------------------|-------------------------------------------------|
A|-------------------------------------------------|-------------------------------------------------|
E|-2-----------------------------------------------|-L-----------------------------------------------|

 
   E   E   E   E   E   E   E   E   E   E   E   E     E   E   E   E   E   E   E   E   E   E   Q   
E|-9-----------9-----------9-----------9-----------|-9-----------9-----------9-----------9--------|
B|---------7-----------7-----------7-----------7---|---------7-----------7-----------7------------|
G|-----7-----------9-----------7-----------9-------|-----7-----------9-----------7-----------9----|
D|-------------------------------------------------|----------------------------------------------|
A|-------------------------------------------------|----------------------------------------------|
E|-7-----------------------------------------------|-L--------------------------------------------|


   E   E   E   E   E   E   E   E   E   E   E   E     E   E   E   E   E   E   E   E   E   E   E   E
E|-4-----------4-----------4-----------4-----------|-4-----------4-----------4-----------4-----------|
B|---------2-----------2-----------2-----------2---|---------2-----------2-----------2---------------|
G|-----2-----------4-----------2-----------4-------|---------2-------1-----------2-----------4s--6---|
D|-------------------------------------------------|-----4-------------------2-----------------------|
A|-------------------------------------------------|-------------------------------------------------|
E|-2-----------------------------------------------|-L-----------------------------------------------|


   E   E   E   E   E   E   E   E   E   E   E   E     E   E   E   E   E   E   E   E   E   E   E   E
E|-9-----------9-----------9-------------------0---|-2-----------2p--0-------0-------------------0---|
B|---------7-----------7-----------7---------------|-0-------0-----------3-------------------2-------|
G|-----7-----------9-----------7-------6s--7-------|-----0-----------------------2---1---2-----------|
D|-------------------------------------------------|-------------------------------------------------|
A|-------------------------------------------------|-------------------------------------------------|
E|-7-----------------------------------------------|-3-----------------------2-----------------------|

								     Slowly
   E   E   E   E   E   E   E   E   E   E   E   E     E   E   E   E   E   E   Q.    Q. 
E|-------------------------------------------------|-------------------------------------|
B|-3-----------3---2-------0-----------0-----------|-0-------0---------------0-----------|
G|---------0-----------2-----------0-----------0---|-------------2---0---2---0-----1-----|
D|-----4-----------------------2-----------2-------|-----2-------------------2-----------|
A|-------------------------3-----------------------|-3---------------3-------4-----------|
E|-0-----------------------------------------------|-------------------------------------|

            145bpm
   W.       E   E   E   E   E   E   Q    Q    Q      E   E   E   E   E   E   Q    Q    Q
E|--------|-9-----------9-----------9---------7----|-5-----------5-----------5----4----3----|
B|--------|-7-------7-----------7---7----11--------|-3-------3-------2s--3---3---------3----|
G|-3------|-----7-----------9-------7--------------|-----4-------------------4--------------|
D|-2------|----------------------------------------|-----------------------------------0----|
A|-4------|----------------------------------------|----------------------------------------|
E|-2------|-7-----------------------7--------------|-3-----------------------3--------------|


   E   E   E   E   E   E   Q    Q.    E     E   E   E   E   E   E   Q    E   E   E   E 
E|-2-----------2-----------2----0---------|-0-----------0-------0----------------5s--7---|
B|-0-------0-----------0--------0-----3---|-0-------2-------3-------2----3h--7-----------|
G|-----0-----------2------------0---------|-----2-------------------2--------------------|
D|------------------------------2---------|-------------------------4--------------------|
A|----------------------------------------|-2-----------------------2--------------------|
E|-0-----------------------0--------------|----------------------------------------------|


   E   E   E   E   E   E   Q    Q    Q      E   E   E   E   E   E   Q    Q    Q
E|-9-----------9-----------9---------7----|-5-----------5-----------5----4----3----|
B|-7-------7-----------7---7----11--------|-3-------3-------2s--3---3---------3----|
G|-----7-----------9-------7--------------|-----4-------------------4--------------|
D|----------------------------------------|-----------------------------------0----|
A|----------------------------------------|----------------------------------------|
E|-7-----------------------7--------------|-3-----------------------3--------------|

  
   E   E   E   E   E   E   Q    Q.    E     E   E   E   E   E   E   Q    E   E   E   E
E|-2-----------2-----------2----0---------|-0-----------0-------0--------------------7---|
B|-0-------0-----------0---0----0-----3---|-0-------2-------3-------2----2s--3---7-------|
G|-----0-----------2-------0----0---------|-----2-------------------2--------------------|
D|------------------------------2---------|-------------------------4--------------------|
A|----------------------------------------|-2-----------------------2--------------------|
E|-0-----------------------0--------------|----------------------------------------------|


   E   E   E   E   E   E   E   E   E   E   E   E     E   E   E   E   E   E   E   E   E   E   Q
E|-9-----------9-----------9---------------7-------|-2-----------2-----------2---------------0----|
B|-7-------7-----------7-----------11--------------|---------0-----------0-----------3-------0----|
G|-----7-----------9-----------7-------7-------7---|----------------------------------------------|
D|-------------------------------------------------|-----4-----------4-----------4-----------4----|
A|-7-----------------------------------------------|-5-----------------------5-----------5--------|
E|-------------------------------------------------|----------------------------------------------|

  
   E   E   E   E   E   E   E   E   E   E   E   E     E   E   E   E   E   E   E   S  S  E   E   E   E
E|-7---------------0---3---7-------5-------3-------|-5-------------------2---5---3p-2p-0-------2-------|
B|-5---------------------------0-------0-------0---|-3---------------3-------------------------3-------|
G|-----------------0-----------------------0-------|-----------------2---------------------2-------2---|
D|---------0---2-----------------------------------|---------0h--4-------------------------------------|
A|-3-----------------------7-----------------------|-2-----------------------2-------------------------|
E|-----3-------------------------------------------|-----2---------------------------------------------|


   E   E   E   E   E   E   E   E   E   E   E   E     E   E   E   E   E   E   E   E   E   E   E   E
E|-2-----------2-------0---2-------3-------2-------|-0-----------------------0-----------------------|
B|---------1-------3---------------3-------3-------|-----------------1h--3-------3p--1---0-----------|
G|-----2-----------------------2-------2-------2---|-2-----------2---------------------------2p--0---|
D|-----------------2-------------------------------|---------3---------------3-----------------------|
A|-0-----------------------0-----------------------|-----3-------------------------------------------|
E|-------------------------------------------------|-1-----------------------------------------------|

   SLOWER, TS. 6/8           145bpm
   E   E   E   E   E   E     E   E   E   E   E   E   E   E   Q    Q      E   E   E   E   E   E   E   E   Q    Q
E|-------------0-----------|-------------------------------------------|-------------------------------------------|
B|-0-------0-----------0---|-2-----------2-----------2------------0----|-------------------------------------------|
G|-----1-----------3-------|---------------------------------3---------|-2-----------2-----------2-------1----0----|
D|-2-----------------------|-----0h--4-------2h--4-------4-------------|-0-------0-----------0---------------------|
A|-------------------------|-2-----------------------------------------|-----2-----------4-----------2-------------|
E|-2-----------------------|-------------------------------------------|-3-----------------------------------------|


   E   E   E   E   E   E   E   E   E   E   E   E     E   E   E   E   E   E   Q    E   E   E   E
E|-2-----------2-----------2-------0---------------|-0-----------0-------0------------------------|
B|-0-------0-----------0-----------0-----------3---|-0-------2-------3-------2----------------0---|
G|-----0-----------2---------------0-------2-------|-----2-------------------2------------2-------|
D|-----------------------------2-------2-----------|-------------------------4----0h--4-----------|
A|-------------------------------------------------|-2-----------------------2--------------------|
E|-0-----------------------0-----------------------|----------------------------------------------|


   E   E   E   E   E   E   E   E   Q    Q      E   E   E   E   E   E   E   E   Q    Q
E|-------------------------------------------|-------------------------------------------|
B|-2-----------2-----------2------------0----|-------------------------------------------|
G|---------------------------------3---------|-2-----------2-----------2-------1----0----|
D|-----0h--4-------2h--4-------4-------------|---------0-----------0---------------------|
A|-2-----------------------------------------|-----2-----------4-----------2-------------|
E|-------------------------------------------|-3-----------------------------------------|


   E   E   E   E   E   E   E   E   E   E   E   E     E   E   E   E   E   E   Q    E   E   E   E
E|-2-----------2-----------2-------0---------------|-0-----------0-------0----------------5h--7---|
B|-0-------0-----------0-----------0-----------3---|-0-------2-------3-------2--------7-----------|
G|-----0-----------2---------------0-------2-------|-----2-------------------2----7---------------|
D|-----------------------------2-------2-----------|-------------------------4--------------------|
A|-------------------------------------------------|-2-----------------------2--------------------|
E|-0-----------------------0-----------------------|----------------------------------------------|


   E   E   E   E   E   E   E   E   E   E   Q      E   E   E   E   E   E   E   E   E   E   Q
E|-9-----------9-----------9---------------7----|-2-----------2-----------2---------------0----|
B|-7-------7-----------7-----------11-----------|---------0-----------0-----------3-------0----|
G|-----7-----------9-----------7-------7--------|----------------------------------------------|
D|----------------------------------------------|-----4-----------4-----------4-----------4----|
A|-7--------------------------------------------|-5-----------------------5-----------5--------|
E|----------------------------------------------|----------------------------------------------|


   E   E   E   E   E   E   E   E   E   E   E   E     E   E   E   E   E   E   E   S  S  E   E   E   E
E|-7---------------0---3---7-------5-------3-------|-5-------------------2---5---3p-2p-0-------2-------|
B|-5---------------------------0-------0-------0---|-3---------------3-------0-----------------3-------|
G|-----------------0-----------------------0-------|-----------------2---------------------2-------2---|
D|---------0---2-----------------------------------|---------0h--4-------------------------------------|
A|-3-----------------------7-----------------------|-2-------------------------------------------------|
E|-----3-------------------------------------------|-----2---------------------------------------------|

   
   E   E   E   E   E   E   E   E   E   E   E   E     E   E   E   E   E   E   E   E   E   E   E   E
E|-2-----------2-------0---2-------3-------2-------|-0-----------0-----------0-----------------------|
B|---------1-------3---------------3-------3-------|---------0-----------0---------------------------|
G|-----2-----------------------2-------2-------2---|-----0-----------2-----------0-------0h--2p--0---|
D|-----------------2-------------------------------|---------2-------4---------------4---------------|
A|-0-----------------------0-----------------------|-----2-------------------------------------------|
E|-------------------------------------------------|-0-----------------------------------------------|

   E   E   E   E   E   E   H     S  S  S  S    E   E   E   E   E   E   E   E   E   E   E   E
E|-0-----------0----------[12]------------5--|-7-----------7-----------7-------5-------3-------|
B|---------0-----------0---------5h-7h-8-----|---------3-------2s--3-------0-------0-------0---|
G|-----0-----------2-------------------------|-----4-----------0---------------0-------0-------|
D|---------2---------------------0-----------|---------------------------------2-------0-------|
A|-----2-------------------------------------|-------------------------------------------------|
E|-0-----------------------------------------|-3-----------------------3-----------------------|


   E   E   E   E   S  S  E   E   E   E   E   S  S  E     E   E   E   E   E   E   E   E   E   E   E   E
E|-2---------------------------------------------------|-5-----------5-----------5-------3-------1-------|
B|-2-----------2---3h-5p-3---2-----------2---------0---|---------1-------0h--1-----------1-------1-------|
G|---------2-------0-----------------2-------1h-2------|-----2-----------------------2-------2-------2---|
D|-----6-------------------------4---------------------|-2-------------------------------0---------------|
A|-----------------------------------------------------|-0-----------------------0---------------3-------|
E|-2-------------------------2-------------------------|-------------------------------------------------|


   E   S  S  E   E   E   E   S  S  E   E   E   S  S  E     E   E   E   E   E   E   E   E   E   E   E   E
E|-0---------------------------------------2---0h-2h-3---|-2-----------2-----------2-------3-------7-------|
B|-0-------------0---2-------0h-2h-3---3-------0---------|-----2h--3-----------0-------0-------0---7p--0---|
G|-----4p-2p-0-----------0-------------4-----------------|-----------------3-------------------------------|
D|-------------------4-------0---------------------------|-----------------------------------------0-------|
A|---------------------------------------------3---------|-2-----------------------2-----------------------|
E|-0-----------------------------------------------------|-------------------------------------------------|


   E   E   E   E   S  S  E   E   E   E   E   E   E     E   E   E   E   E   E   E   E   E   E   E   E
E|-7-------------------------0-------0---------------|-0-----------0-----------0-------2-------0-------|
B|-0-----------2---------2-------------------2-------|---------0-----------0---------------------------|
G|---------1-------0h-1----------1-------1-----------|-----0-----------2-----------0-------0-------0---|
D|-----3---------------------3-------------------3---|---------------------------------2---------------|
A|-4------------------------(4)----------------------|-----------------2-----------------------2-------|
E|---------------------------------------------------|-0-----------------------------------------------|


   E   E   E   E   E   E   E   E   E   E   E   E     E   E   E   E   E   E   E   E   E   E   E   E
E|-------------------------------------------------|-------------7-----------7-----------7-----------|
B|-4-----------0-----------0-----------0-----------|-0---4h--7-------6h--7-------4h--7-------6h--7---|
G|-------------------------------------------------|-------------------------------------------------|
D|-----1h--4-------3s--4-------1h--4-------3s--4---|-------------------------------------------------|
A|-2-----------------------2-----------------------|-------------------------------------------------|
E|-------------------------------------------------|-------------------------------------------------|


   W.       E   E   E   E   E   E   Q    Q    Q      E   E   E   E   E   E   Q    Q    Q
E|-7------|-9-----------------------9----6----7----|-5-----------------------5----4----3----|
B|-7------|-7-----------------------7----7---------|-3---------------0---2---3----0----2----|
G|-8------|-7---------------6h--7---9--------------|-4-----------2-----------4--------------|
D|-9------|---------7h--9--------------------------|-----0h--4------------------------------|
A|--------|-----9----------------------------------|----------------------------------------|
E|--------|-7--------------------------------------|-3--------------------------------------|


   E   E   E   E   E   E   Q    Q    Q      E   E   E   E   E   E   E   E   E   E   E   E
E|-2-----------------------2----0---------|-0---------------0---------------------------7---|
B|-3-----------------------3---------3----|-----------------------------0-------7h--10------|
G|-0---------------0h--2---4----0----4----|-6---------------6s--7---9-------7---------------|
D|---------0h--4--------------------------|-7-------7h--9-----------------------------------|
A|-----2----------------------------------|-----9-------------------------------------------|
E|-0--------------------------------------|-7-----------------------------------------------|


   E   E   E   E   E   E   Q    Q    Q      E   E   E   E   E   E   Q    Q    Q
E|-9-----------------------9----6----7----|-5-----------------------5----4----3----|
B|-7-----------------------7----7---------|-3---------------0---2---3----0----2----|
G|-7---------------6h--7---9--------------|-4-----------2-----------4--------------|
D|---------7h--9--------------------------|-----0h--4------------------------------|
A|-----9----------------------------------|----------------------------------------|
E|-7--------------------------------------|-3--------------------------------------|


   E   E   E   E   E   E   Q    Q    Q      E   E   E   E   E   E   E   E   E   E   E   E
E|-2-----------------------2----0---------|-0---------------0---------------------------7---|
B|-3-----------------------3---------3----|-----------------------------0-------7h--10------|
G|-0---------------0h--2---4----0----4----|-6---------------6h--7---9-------7---------------|
D|---------0h--4--------------------------|-7-------7h--9-----------------------------------|
A|-----2----------------------------------|-----9-------------------------------------------|
E|-0--------------------------------------|-7-----------------------------------------------|


   E   E   E   E   E   E   E   E   E   E   Q      E   E   E   E   E   E   E   E   E   E   Q
E|-9-----------9-----------9---------------7----|-2-----------2-----------2---------------0----|
B|-7-------7-----------7-----------11-----------|---------0-----------0-----------3-------0----|
G|-----7-----------9-----------7-------7--------|----------------------------------------------|
D|----------------------------------------------|-----4-----------4-----------4-----------4----|
A|-7--------------------------------------------|-5-----------------------5-----------5--------|
E|----------------------------------------------|----------------------------------------------|


   E   E   E   E   E   E   E   E   E   E   E   E     E   E   E   E   E   E   E   S  S  E   E   E   E
E|-7---------------0---3---7-------5-------3-------|-5-------------------2---5---3p-2p-0-------2-------|
B|-5---------------------------0-------0-------0---|-3---------------3-------0-----------------3-------|
G|-----------------0-----------------------0-------|-----------------2---------------------2-------2---|
D|---------0---2-----------------------------------|---------0---4-------------------------------------|
A|-3-----------------------7-----------------------|-2-------------------------------------------------|
E|-----3-------------------------------------------|-----2---------------------------------------------|


   E   E   E   E   E   E   E   E   E   E   E   E     E   E   E   E   E   E   E   E   E   E   E   E
E|-2-----------2-------0---2-------3-------2-------|-0-----------0-----------0-----------------------|
B|---------1-------3---------------3-------3-------|---------0-----------0---------------------------|
G|-----2-----------------------2-------2-------2---|-----0-----------2-----------0-------0h--2p--0---|
D|-----------------2-------------------------------|---------2-------4---------------4---------------|
A|-0-----------------------0-----------------------|-----2-------------------------------------------|
E|-------------------------------------------------|-0-----------------------------------------------|

   
   E   E   E   E   E   E   E   E   E   E   E   E     E   E   E   E   E   E   H.
E|-0-----------0-----------0-----------0-----------|-0-----------0----------[12]----|
B|---------0-----------0-----------0-----------0---|---------0-----------0----------|
G|-----0-----------2-----------0-----------2-------|-----0-----------2--------------|
D|---------2---------------------------------------|---------2----------------------|
A|-----2-------------------------------------------|-----2--------------------------|
E|-0-----------------------------------------------|-0------------------------------|


   
   E   E   E   E   E   E   H     E   E     H     E   E   H.      E   E   E   E   E   E   H     E   E
E|-----------------5S--4s--5-----L---10--|----------[5]--------|-----------------5s--4s--5-----L---10--|
B|-------------3-------------------------|-10----L------[3]----|-------------3-------------------------|
G|---------------------------------------|---------------------|---------------------------------------|
D|---------4-----------------------------|---------------------|---------4-----------------------------|
A|-----2---------------------------------|---------------------|-----2---------------------------------|
E|-0-------------------------------------|---------------------|-0-------------------------------------|


   H     E   E   H. 
E|---------------5------|
B|-10------------3------|
G|---------------0------|
D|---------------4------|
A|-----------2---L------|
E|-------0---L---L------|



Login or Register to remove this ad.

2 comments on Via Purifico

No idea how you guys come up

5

No idea how you guys come up with this stuff but I love it. Sounds jazzy at some parts.

Holy crap that was fantastic!

Holy crap that was fantastic!