Ads

Sprouting (Final Fantasy X) Ukulele Tab

Submitted: Jun 23, 2009 by Stamen47 (Last updated: Feb 04, 2010)

5
Average: 5 (2 votes)
Download | Listen
Game: Final Fantasy X
Composer(s): Nobuo Uematsu, Junya Nakano, Masashi Hamauzu
Style: Arrangement, Fingerstyle, Natural harmonics
Series: Final Fantasy

AutoScroll: Slow | Medium | Fast
                                  Sprouting                                     

Music by Nobuo Uematsu
Tab by Stamen47

     Q.     E  Q       Q.     E  Q       Q    E  E  E   E     Q    E  E  Q     
A||--3------3--3----|--2------2--2----|--2----2--2--2------|--2----2--2--2----|
E||--1------1--1----|--1------1--1----|--0----0--0--0------|--0----0--0--0----|
C||--4------4--4----|--4------4--4----|--2----2--2--2p--0--|--0----0--0--0----|
G||--2------2--2----|--1------1--1----|--0----0--0--0------|--0----0--0--0----|


  Q    S E.  S E.     S E.  Q.     E     Q.     E  Q       Q.     E  Q     
--3----3-----3-----|--2-----2------2--|--0------0--0----|--0------0--0----|
--1----1-----1-----|--1-----1------1--|--0------0--0----|--0------0--0----|
--2----2-----2-----|--2-----2------2--|--2------2--2----|--0------0--0----|
--1----1-----1-----|--1-----1------1--|--2------2--2----|--2------2--2----|


  Q    Q    Q       S E.  Q.     E     H        Q       Q    E  E  Q     
--3----3----3----|--5-----5------5--|--5--------5----|--5----5--5--5----|
--1----1----1----|--5-----5------5--|--5--------5----|--3----3--3--3----|
--4----4----4----|--5-----5------5--|--5--------5----|--6----6--6--6----|
--2----2----2----|--5-----5------5--|--4--------4----|--4----4--4--4----|


  |-3-|                                                           
  S S S E  E  E  E  E     E  E  E  E  E  E     E  E  E  E  E  E   
--0-2-0----------0--2--|--3-----2-----0-----|-----------0--------|
--------0-----0--------|--1-----1-----1-----|--3-----------3-----|
-----------0-----------|-----0-----0-----0--|-----2-----------2--|
--------------------0--|--2-----------------|--------4-----------|


                       ^                                       
  E  E  E   E  Q       E  E  E  E  E  E     E  E  E  E  E  E   
--------3S--5--3----|--0-----------0--2--|--3-----2-----3-----|
--0-----------------|--0--0-----0--------|--1-----1-----1-----|
--0-----------------|--0-----0-----------|-----0-----0-----0--|
-----0--------------|--2--------------0--|--2-----------------|


                       ^                                          
                                            |-3-|                 
  E  E  E  E  E  E     E  E  E  E  E  E     S S S E  E  E  E  E   
--5-----------5-----|--7--------5--------|--3-2-0----------0--2--|
--7-----7--8--------|--0--0-----------7--|--------0-----0--------|
-----------------5--|--0-----------------|-----------0-----------|
-----0--------------|--5-----5-----5-----|--------------------0--|


  E  E  E  E  E  E     E  E  E  E  E  E     E  E  E  E  E  E   
--3-----2-----0-----|-----------0--------|--------------3--5--|
--1-----1-----1-----|--3-----------3-----|--0-----------------|
-----0-----0-----0--|-----2-----------2--|--0-----0--2--0-----|
--2-----------------|--------4-----------|-----0--------------|


  ^                                          ^                  
  E  E  E  E  E  E     E.  S Q    E   E      E  E  E  E  E  E   
--7-----7-----7-----|--7-----5-------10\--|--3--------3--2-----|
--5-----5-----0-----|--7------------------|--1--1--------0-----|
--5--5-----5-----0--|---------------------|--2-----------------|
--5-----------5-----|--0------------------|--2-----2--------0--|


                         ^                                           
  |-3-|                                                              
  S S S E  E  E  Q       Q    E  E  E  E     E  S S S S S S E   E    
--0-2-0---------------|--0----------------|-----------------0-------|
-----------1-----1----|--1-------1-----1--|-----1---1---1------10S--|
--------0-------------|--0----0-----------|--2----------------------|
--------------0-------|--2----------2-----|-----2---2---2------10S--|


                                                 NH              
  E  E  E  E  E   E     E  E  E  E  E   E        H        E  E   
--0------------------|--------5-----8------|--<>12--------------|
--6--------6---------|--0-----------8------|--<>12--------------|
--------7-----5S--2--|--0------------------|--<>12--------------|
--7--7---------------|-----5-----9-----12--|--------------7--5--|


  E  E  E  E  Q       H        E  E     E  E  E  E  Q       Q    H         
-----------0--2----|--2--------4--2--|--------------0----|--2-------------|
--0-----------0----|--2--------------|-----0--1-----1----|--0-------------|
-----6-------------|--2--------------|--2-----------2----|----------------|
--------0-----0----|-----------------|-----------0-------|--2----1--------|


  E  S S S S S S E  E     E  E  E  E  E  E     E  E  E  E   E  E   
-----2---2---2------5--|--7-----7-----7-----|-----0-----4------7--|
--0--------------7-----|--7--7--5-----3-----|--2-----------10-----|
-----------------------|--0--------0-----0--|--2------------------|
-----0---0---0------0--|--0-----------------|--------4------------|


   H.              Q    Q    Q       H        Q       E  S S E  E  Q     
---9------------|-------0---------|-----------2----|-----2---2----------|
--10------------|--9---------2----|--0-------------|-----2---2----------|
--11------------|--9----6----1----|--0-------------|--2---------2--2----|
----------------|-----------------|--0-------------|--------------------|


                       ^               
  E  E  E  E  E  E     H.              
--------2-----2-----|--7-------------||
--0-----------------|--4------------*||
--------------------|--4------------*||
-----1-----1-----1--|--4-------------||




Duration Legend
---------------
W - whole
H - half
Q - quarter
E - 8th
S - 16th
T - 32nd
X - 64th
. - note dotted
|-n-|  - n-tuplets


Tablature Legend
----------------
L - tied note
x - dead note
g - grace note
(n) - ghost note
> - accentuded note
NH - natural harmonic
AH - artificial harmonic
TH - tapped harmonic
SH - semi harmonic
PH - pitch harmonic
h - hammer on
p - pull off
b - bend
br - bendRelease
pb - preBend
pbr - preBendRelease
brb - bendReleaseBend
\n/ - tremolo bar dip
\n - tremolo bar dive
-/n - tremolo bar Release up
/n\ - tremolo bar inverted dip
/n - tremolo bar return
-\n - tremolo bar Release down
S - shift slide
s - legato slide
/ -  slide into from below or out of upwards
\ -  slide into from above or out of downwards
~ - vibrato
W - wide vibrato
tr - trill
TP - tremolo picking
T - tapping
S - slap
P - pop
< - fade in
^ - brush up
v - brush down
Login or Register to remove this ad.

2 comments on Sprouting

ukulele

I believe it's spelled ukulele

fixed

fixed