Rikku's Theme (SongeLeReveur Version) (Final Fantasy X) Bass/Guitar Tab

Submitted: Jul 17, 2011 by ForestMarth (Last updated: Jul 17, 2011)

0
Download | Listen
Game: Final Fantasy X
Composer(s): Nobuo Uematsu, Junya Nakano, Masashi Hamauzu
Style: 2 or more instruments, Arrangement, Transcription
Series: Final Fantasy

AutoScroll: Slow | Medium | Fast
                         Final Fantasy X - Rikku's Theme

Composed by : Nobuo Uematsu

Arranged by : SongeLeReveur

Tabbed by : ForestMarth

Platform : PlayStation 2


I'm sorry but rhythm is not respected (here and in the Guitar Pro files).
Don't hesitate to take this tab and put it rhythm ! :-)
Look at SongeLeReveur's video to hear the rhythm.

I haven't written the dead notes that Songe used with his bass.
Nevertheless, I think dead notes are important.
I simply recommend you to play dead notes according to your own feeling ;)

For each instrument, I pointed out the different parts of the arrangement.
The different parts are : Intro - Theme - Improvisation - Coda.



Rhythm Guitar



     Intro
E||--7s----8----10----------10--------8----------8--------10--------
B||--7s----8----10-----------8--------8----------8--------10--------
G||--6s----7----10-----------9--------7----------7--------10--------
D||--6s----7-----8-----------8--------7----------7---------8--------
A||-----------------------------------------------------------------
E||-----------------------------------------------------------------


                      Theme
--5--------5----------7s----8----8----------8--------5--------
--3--------5----------7s----8----8----------8--------6--------
--3--------5----------6s----7----7----------7--------5--------
--2--------3----------6s----7----7----------7--------5--------
--------------------------------------------------------------
--------------------------------------------------------------


            
--4s----5----5----(5)------5--------10----------10--------(5)--------
--5s----6----6-----3-------6--------10-----------8---------5---------
--4s----5----5----(3)------5--------10-----------9---------5---------
--4s----5----5----(3)------5---------8-----------8---------5---------
---------------------------------------------------------------------
---------------------------------------------------------------------


            
--(5)--------(5)----------(5)--------5----------5--------5--------
---6----------3------------3---------5----------4--------3--------
---5----------3------------3---------5----------5--------3--------
---5----------3------------2---------5----------4--------3--------
------------------------------------------------------------------
------------------------------------------------------------------


           
--5--------5-----------------------------------------5--------
--3--------3----------4s----5----5----------5--------3--------
--3--------3----------4s----5----5----------4--------3--------
--2--------2----------2s----3----3----------3--------3--------
--------------------------------------------------------------
--------------------------------------------------------------


           
--5--------5----------8--------10----------10--------8--------
--3--------3----------8--------10-----------8--------8--------
--3--------3----------7--------10-----------9--------7--------
--3--------2----------7---------8-----------8--------7--------
--------------------------------------------------------------
--------------------------------------------------------------


           
--8--------10----------10--------5----------5--------5--------
--8--------10-----------8--------5----------5--------3--------
--7--------10-----------9--------5----------5--------3--------
--7---------8-----------8--------3----------3--------3--------
--------------------------------------------------------------
--------------------------------------------------------------


       
--5--------5----------5--------5----------5--------4s----5----
--3--------5----------5--------5----------3--------2s----3----
--3--------5----------5--------5----------4--------3s----4----
--2--------3----------5--------4----------3--------2s----3----
--------------------------------------------------------------
--------------------------------------------------------------


           
--5--------3----------2s----3----3----------3-----------------
--3--------3----------2s----3----3----------3-----------------
--4--------3----------2s----3----3----------3-----------------
--3--------2----------1s----2----2----------2-----------------
--------------------------------------------------------------
--------------------------------------------------------------


           
--8--------10----------10--------8----------7s----8----8--------
--8--------10-----------8--------8----------7s----8----8--------
--7--------10-----------9--------7----------6s----7----7--------
--7---------8-----------8--------7----------6s----7----7--------
----------------------------------------------------------------
----------------------------------------------------------------


                                            Improvisation
-------10----5----------5-------------------4s----5----5--------
-------10----3----------5-------------------4s----5----5--------
-------10----3----------5-------------------4s----5----5--------
--8----------2----------3-------------------2s----3----3--------
----------------------------------------------------------------
----------------------------------------------------------------


           
--5--------5----------(5)--------(5)----------5--------10--------
--5--------6-----------3----------6-----------6--------10--------
--5--------5-----------3----------5-----------5--------10--------
--3--------5-----------3----------5-----------5---------8--------
-----------------------------------------------------------------
-----------------------------------------------------------------


            
--10--------5----------5-------------5------5--------5--------
---8--------5----------6-------------3------3--------5--------
---9--------5----------5-------------3------3--------5--------
---8--------5----------5--------3-----------2--------5--------
--------------------------------------------------------------
--------------------------------------------------------------


           
--5--------5----------5-------------------------------------
--4--------3----------3--------5----------5--------5--------
--5--------3----------3--------5----------5--------4--------
--4--------3----------2--------3----------3--------3--------
------------------------------------------------------------
------------------------------------------------------------


           
--5--------5----------5--------5----------8--------10--------
--3--------3----------3--------3----------8--------10--------
--3--------3----------3--------3----------7--------10--------
--3--------3----------3--------2----------7---------8--------
-------------------------------------------------------------
-------------------------------------------------------------


            
--10--------8----------7s----8----8----------10--------10--------
---8--------8----------7s----8----8----------10---------8--------
---9--------7----------6s----7----7----------10---------9--------
---8--------7----------6s----7----7-----------8---------8--------
-----------------------------------------------------------------
-----------------------------------------------------------------


           
--8--------8----------10--------5----------5--------5--------
--8--------8----------10--------3----------5--------5--------
--7--------7----------10--------3----------5--------5--------
--7--------7-----------8--------2----------3--------5--------
-------------------------------------------------------------
-------------------------------------------------------------


           
--5--------5----------5--------3----------2s----3----3--------
--5--------3----------3--------3----------2s----3----3--------
--5--------4----------4--------3----------2s----3----3--------
--4--------3----------3--------2----------1s----2----2--------
--------------------------------------------------------------
--------------------------------------------------------------


       
--3--------8----------10--------10----------8--------7s----8----
--3--------8----------10---------8----------8--------7s----8----
--3--------7----------10---------9----------7--------6s----7----
--2--------7-----------8---------8----------7--------6s----7----
----------------------------------------------------------------
----------------------------------------------------------------


                                             Coda
--8-------------10------10--------8----------7s----8----8--------
--8-------------10-------8--------8----------7s----8----8--------
--7-------------10-------9--------7----------6s----7----7--------
--7--------8-------------8--------7----------6s----7----7--------
-----------------------------------------------------------------
-----------------------------------------------------------------


            
--5--------4s----5------5--------10----------10--------(5)--------
--6--------5s----6------6--------10-----------8---------5---------
--5--------4s----5------5--------10-----------9---------5---------
--5--------4s----5------5---------8-----------8---------5---------
------------------------------------------------------------------
------------------------------------------------------------------


             
--(5)--------(5)----------(5)--------(5)----------(5)--------(5)--------
---6----------3------------3----------5------------4----------4---------
---5----------3------------3----------5------------5----------5---------
---5----------3------------2----------5------------4----------4---------
------------------------------------------------------------------------
------------------------------------------------------------------------


            
--5--------------------5--------(5)----------(5)--------5--------|
--3-------------3------3---------5------------3---------5--------|
--3-------------3------3---------5------------4---------5--------|
--3--------3-----------2---------5------------3---------3--------|
-----------------------------------------------------------------|
-----------------------------------------------------------------|




Lead Guitar



     Theme          
E||----------------8----12------10----------10----8----
B||--9g10----11-----------------------11---------------
G||----------------------------------------------------
D||----------------------------------------------------
A||----------------------------------------------------
E||----------------------------------------------------


       
--8----------------5------8----6---------6------5----5----------------
-------5g6----8---------------------8----------------------------5----
----------------------------------------------------------6g7---------
----------------------------------------------------------------------
----------------------------------------------------------------------
----------------------------------------------------------------------


       
------------------------5----5------------------5----6----5----6----
--6----8----6----8----------------5g6----8--------------------------
--------------------------------------------------------------------
--------------------------------------------------------------------
--------------------------------------------------------------------
--------------------------------------------------------------------


     
--8----8----6----5--------------------------------5---------------------
------------------------5g6-----------6----8-----------6---------6s--5--
------------3----2-------------6g7--------------------------7-----------
------------------------2g3---------------------------------------------
------------------------------------------------------------------------
------------------------------------------------------------------------


       
---------------------------------------------------------------------------
--6----5----3----3------10----8----10------------10g11----10----8----------
-----------------------------------------10--------------------------10----
---------------------------------------------------------------------------
---------------------------------------------------------------------------
---------------------------------------------------------------------------


       
---------------------------8----12----10----------
--8----10----10----11-----------------------11----
--------------------------------------------------
--------------------------------------------------
--------------------------------------------------
--------------------------------------------------


        
-----------------------------------------------------
------------------------------10----8----10----------
--10s--9--7s--9--10----------------------------10----
-----------------------------------------------------
-----------------------------------------------------
-----------------------------------------------------


           
-------------------------------------------------------8----12----10----8----
--10g11----10----8------------8----10----10----11----------------------------
----------------------10-----------------------------------------------------
-----------------------------------------------------------------------------
-----------------------------------------------------------------------------
-----------------------------------------------------------------------------


              
---------------------------------------------------------------------------
--10----8--------------------10----10g11----10----8------6-----------------
-------------10----7s--10--------------------------------------------------
---------------------------------------------------------------------------
---------------------------------------------------------------------------
---------------------------------------------------------------------------


  Improvisation     
--6----7s--8--10----x------10----8----x----12------12----10----12----8----
--------------------------------------------------------------------------
--------------------------------------------------------------------------
--------------------------------------------------------------------------
--------------------------------------------------------------------------
--------------------------------------------------------------------------


       
--5----6h--8--5----(10)--------------------------------------------------
-------------------(10)---------------------------------------------x----
-------------------(10)------9s--8--9----7----9------5----7----5---------
-------------------------------------------------------------------------
-------------------------------------------------------------------------
-------------------------------------------------------------------------


       
-------3h--4--5----6------3----6----5----4------3s--2---------------------
--5----------------------------------------------------4p--3--------------
--------------------------------------------------------------2s--3--5----
--------------------------------------------------------------------------
--------------------------------------------------------------------------
--------------------------------------------------------------------------


       
--------------------------3---------6----5------6----5---------5----
-------x----6----4h--5---------5--------------------------6---------
--3-----------------------------------------------------------------
--------------------------------------------------------------------
--------------------------------------------------------------------
--------------------------------------------------------------------


         
--6g7-----------------------1----3----5----3------1----3----5----6----
---------6----6----2s--3----------------------------------------------
----------------------------------------------------------------------
----------------------------------------------------------------------
----------------------------------------------------------------------
----------------------------------------------------------------------


      
--8----13----x----15------17----x----17----16------15----13----------------
---------------------------------------------------------------15----------
---------------------------------------------------------------------14----
---------------------------------------------------------------------------
---------------------------------------------------------------------------
---------------------------------------------------------------------------


        
-------------------------------------------------------
-------------------------------------------------16----
--15h--16--17----14------------------14----17----------
-----------------------15------17----------------------
-------------------------------------------------------
-------------------------------------------------------


                                   ^                                          
        
--17----15----13----12------13----12----11----10------8---------------------
-----------------------------------x-----------------------10---------------
-----------------------------------x-----------------------------10----9----
-----------------------------------x----------------------------------------
----------------------------------------------------------------------------
----------------------------------------------------------------------------


        
----------------------------------------------------------------8----10----
----------------------------------------------------------10---------------
--10------------------------9----12----11----10------9---------------------
--------10----11----12-----------------------------------------------------
---------------------------------------------------------------------------
---------------------------------------------------------------------------


        
--12----10----8----5--------------------------------------------------
--------------------------5-------------------------------------------
-------------------------------4----5----4------x----3s--4--5----7----
----------------------------------------------------------------------
----------------------------------------------------------------------
----------------------------------------------------------------------


       
--------------3-----------5----6----5----6------5----3----1----5----
--6----4h--5-------5------------------------------------------------
--------------------------------------------------------------------
--------------------------------------------------------------------
--------------------------------------------------------------------
--------------------------------------------------------------------


       
--8----10----12----13------17----16----15----13----
---------------------------------------------------
--------7-----9----10------14----13----12----10----
---------------------------------------------------
---------------------------------------------------
---------------------------------------------------


  Coda
----------------8----12------10----------10----8------8----------------5----
--9g10----11-----------------------11----------------------5g6----8---------
----------------------------------------------------------------------------
----------------------------------------------------------------------------
----------------------------------------------------------------------------
----------------------------------------------------------------------------


       
--8----6---------6------5----5--------------------------------------
------------8----------------------------5------6----8----6----8----
----------------------------------6g7-------------------------------
--------------------------------------------------------------------
--------------------------------------------------------------------
--------------------------------------------------------------------


       
--5----5------------------5----6----5----6------8----8----8----6----
------------5g6----8------------------------------------------------
--------------------------------------------------------------------
--------------------------------------------------------------------
--------------------------------------------------------------------
--------------------------------------------------------------------


        
--5-----------------------5---------------------------------------/17----|
-------6---------6h--8---------6----5s--6s--5------3----3---------/17----|
------------7-----------------------------------------------------/17----|
-------------------------------------------------------------------------|
-------------------------------------------------------------------------|
-------------------------------------------------------------------------|




Bass



     Intro             
G||-----------------------------------------------------------------
D||-----------------------------------------------------------------
A||--8--------------8------8--------------8------8----7-------------
E||-------6----8----------------6----8------------------------------


  Theme   
------------------------------------------------------------------
------------------------------------------------------------------
--8--------------8------8----5---------5------5----5--------------
-------6----6---------------------3---------------------6----7----


       
--------------------------------------------------------------------
--------------------------------------------------------3h--5-------
-----------------6------5---------3-----------5----------------5----
--8----4----5----------------3---------5-----------3----------------


       
------------------------------------------------------------------
------------------------------------------------------------------
--4----3----3----4------5----5----------------0----1----1---------
----------------------------------3----3---------------------2----


       
------------------------------------------------------------------
----------------------------------3-------------------------------
-------3----------------1----3----------------1----1----2----3----
--3---------2----1---------------------1--------------------------


       
------------------------------------------------------------------
--3----3--------------------------3-------------------------------
------------3-----------1----3---------------------5--------------
-----------------1---------------------4------5---------4----3----


      
------------------------------------------------------------------
--5----5----3-----------------------------------------------------
----------------------------------2----3------3----3----1----3----
-----------------3------3----3------------------------------------


           
-----------------------------------------------------------------
------------------------3--------------------------3-------------
------------1----3-----------3---------1------3------------------
--3----1--------------------------1------------------------------


  Improvisation 
-------------------------------------------------------------------------
-------------------------------------------------10----11----12----10----
--7----8----7-----------------8----10----12------------------------------
-----------------10------8-----------------------------------------------


        
---------------------------------------------------------------------
---------------------------------------------------------------------
--12------------------------------------------------------------6----
--------12----10----8------6----5----6----7------8----4----5---------


       
------------------------------------------------------------------
------------------------------------------------------------------
--5--------------2------3---------------------6----5--------------
-------4----3----------------4----6----5----------------4----3----


       
------------------------------------------------------------------
------------------------------------------------------------------
------------5----3---------------------5------3----2--------------
--5----6----------------6----5----3---------------------5----3----


       
------------------------------------------------------------------
----------------------------------3----4------5-------------------
-------5----3----1------3----5---------------------4----3---------
--5----------------------------------------------------------2----


       
---------------------------------------5--------------------------
-----------------------------2----3-----------3-------------------
-------0----1----2------3--------------------------0----1----4----
--1---------------------------------------------------------------


       
------------------------------------------------------------------
--------------------------------------------------------2----3----
--2----3--------------------------0----1------2----3--------------
------------2----1------0----1------------------------------------


       
-------------------------------------------------------------4----
---------------------------------------------------5----7---------
--3---------4----5----------------------------5-------------------
-------5----------------4----3----5----7--------------------------


       
--7----6----5----3------------------------------------------------
------------------------7----5------------------------------------
----------------------------------3--------------------------0----
---------------------------------------6------5----3----1---------


       
------------------------------------------------------------------
-----------------2------3------------------------------------2----
--1----2----3----------------3---------0------1----2----3---------
----------------------------------1-------------------------------


                       Coda
-----------------------------------------------------------------
--3--------------------------------------------------------------
-------3--------------------0----1----------------5---------5----
-----------------------1--------------1------1---------3---------


       
------------------------------------------------------------------
------------------------------------------------------------------
--5-------------------------------5----------------3---------5----
-------6----8----8------6----5---------4------3---------5---------


        
--------------------------------------------|
--------------------------------------------|
-----------------3------3----5--------------|
--4----3----3---------------------3----1----|





Tablature Legend
----------------
L - tied note
x - dead note
g - grace note
(n) - ghost note
> - accentuded note
NH - natural harmonic
AH - artificial harmonic
TH - tapped harmonic
SH - semi harmonic
PH - pitch harmonic
h - hammer on
p - pull off
b - bend
br - bendRelease
pb - preBend
pbr - preBendRelease
brb - bendReleaseBend
\n/ - tremolo bar dip
\n - tremolo bar dive
-/n - tremolo bar Release up
/n\ - tremolo bar inverted dip
/n - tremolo bar return
-\n - tremolo bar Release down
S - shift slide
s - legato slide
/ -  slide into from below or out of upwards
\ -  slide into from above or out of downwards
~ - vibrato
W - wide vibrato
tr - trill
TP - tremolo picking
T - tapping
S - slap
P - pop
< - fade in
^ - brush up
v - brush down
Login or Register to remove this ad.