Ads

Normal Battle (Final Fantasy X) Bass Tab

Submitted: Jun 15, 2012 by thedstring (Last updated: Jun 15, 2012)

4
Average: 4 (4 votes)
Download | Listen
Game: Final Fantasy X
Composer(s): Nobuo Uematsu, Junya Nakano, Masashi Hamauzu
Style: Fingerstyle, Transcription
Series: Final Fantasy

AutoScroll: Slow | Medium | Fast
Battle Theme
Final Fantasy X

Composed by Nobuo Uematsu
Tabbed by Nate Brooks (thedstring)

standard tuning 4 string bass


G|--------------|-----------------|--------------|-------------------|
D|--------------|-----------------|--------------|-------------------|
A|--4-----4-----|--4--------------|--0-----0-----|--0----------------|
E|--------------|-----------------|--------------|-------------------|


---------------|------------------|--------------|-------------------|
--4-----4------|--4---------------|--0-----0-----|--0----------------|
---------------|------------------|--------------|-------------------|
---------------|------------------|--------------|-------------------|


----------6----------|----6--9----|----------6----------|----7--11---|
-------6--------6----|-7----------|-------6--------6----|-7----------|
-4-------------------|------------|-4-------------------|------------|
---------------------|------------|---------------------|------------|


----------6----------|-----6-9----|----------6----------|----7--11---|
-------6--------6----|--7---------|-------6--------6----|-7----------|
-4-------------------|------------|-4-------------------|------------|
---------------------|------------|---------------------|------------|


---------------------|------------|---------------------|------------|
---------------------|------------|---------------------|------------|
--4--------4---------|--4---------|--4--------4---------|--4---------|
---------------------|------------|---------------------|------------|


---------------------|------------|---------------------|------------|
---------------------|------------|--0--------0---------|--0---------|
--4--------4---------|--4---------|---------------------|------------|
---------------------|------------|---------------------|------------|


----------------------------|----------------------------|
----------------------------|----------------------------|
--4--------4--------4-------|-----4--------4--6--7-------|
----------------------------|----------------------------|


----------------------------|----------------------------|
----------------------------|----------------------------|
--4--------4--------4-------|-----4--------4--6--7-------|
----------------------------|----------------------------|


----------------------------|----------------------------|
----------------------------|----------------------------|
--2--------2--------2-------|-----2--------2--4--6--2----|
----------------------------|----------------------------|


----------------------------|----------------------------|
--2--------2--------2-------|-----2--------2--4--6-------|
----------------------------|----------------------------|
----------------------------|----------------------------|


----------------------------|----------------------------|
----------------------------|----------------------------|
--0--------0--------0-------|-----0--------0--2--4-------|
----------------------------|----------------------------|


----------------------------|----------------------------|
--4--------4--------4-------|-----4--------4-----2-------|
----------------------------|----------------------------|
----------------------------|----------------------------|


----------------------------|----------------------------|
--1--------1--------1-------|-----1--------1--2--4--1----|
----------------------------|----------------------------|
----------------------------|----------------------------|


----------------------------|----------------------------|
----------------------------|----------------------------|
----------------------------|----------------------------|
--4--------4--------4-------|-----4--------4-----4-------|



--------------------------------1-----6-------------|
--------------------2-------------------------------|
--4-------------------------------------------------|
----------------------------------------------------|


--------------------1-----6-----------4-------------|
--------2-------------------------------------------|
----------------------------------------------------|
----------------------------------------------------|


--2-------------------------|----------------------------|
----------------------------|----------------------------|
-----------0--------2-------|-----4--------6-----7-------|
----------------------------|----------------------------|


--------------------------------------4-------------|
--------------------1-----------4-------------------|
----------------------------------------------------|
--7-------------------------------------------------|


--------------------------4-----2-----1-------------|
--------1-----------4-----------------------4-------|
----------------------------------------------------|
----------------------------------------------------|


--------------------9-----------------8-------------|--6--4--2--1----|
--2-------------------------------------------------|----------------|
----------------------------------------------------|----------------|
----------------------------------------------------|----------------|


--------------------------------------2-------------|
--------------------------------2-------------------|
--0-----------------4-------------------------------|
----------------------------------------------------|


--------------------------2-----------1-------------|
--------------------2-------------------------------|
--------4-------------------------------------------|
----------------------------------------------------|


--0-------------------------------------------------|
--------------------------------------1-------------|
--------------------4-------------------------------|
----------------------------------------------------|


----------------------------------------------------|
----------------------------------------------------|
--------1-----------1-------------------------------|
--------------------------3-------------------------|


--------------------------------------0-------------|
--2-----------------4-------------------------------|
----------------------------------------------------|
--0-----------------2-----------------3-------------|


--------3-----------------------------0-------------|
--------------------------6-------------------------|
--------1-------------------------------------------|
--------------------------4-----------3-------------|


--1-----------------3-----------------5-------------|
----------------------------------------------------|
--------------------1-----------------3-------------|
--4-------------------------------------------------|


------6---------------8---------13----------|--6----|------6--4----|
--------------------------------------------|-------|--------------|
------4---------------6---------11----------|--4----|--------------|
--------------------------------------------|-------|--------------|


--------------------6-------|--------------------6-------|
--7-------------------------|--------------7-------------|
-----------7----------------|-----7-----7----------------|
----------------------------|----------------------------|


----------------------------|--------------------6-------|-------|
--7-----------------11------|--------------7-------------|--4----|
-----------9----------------|-----8----------------------|--2----|
----------------------------|----------------------------|-------|


-------4--2----|--1-----------------4------|------------1----4-----|
---------------|-----------2---------------|----2------------------|
---------------|---------------------------|-----------------------|
---------------|---------------------------|-----------------------|


--8--------9--------13------|-----6--------8-----9-------|
----------------------------|----------------------------|
----------------------------|----------------------------|
----------------------------|----------------------------|


--------------------2-------|--------------2-------------|
--7--------------2----------|-----------2--------2-------|
-----------4----------------|-----4----------------------|
----------------------------|----------------------------|


--4-----------------4-------|--------------4-----8-------|
-----------------4----------|-----------4----------------|
-----------6----------------|-----6----------------------|
----------------------------|----------------------------|


--6----|-----4----|--2----|----------|-------|
-------|----------|-------|-----6----|--4----|
--4----|-----2----|--0----|----------|-------|
-------|----------|-------|-----4----|--2----|


----------|----------------|----------------------|--------------------|
-----2----|--0--0--0--0----|--0--0-----0--0--0----|--0--0--------------|
----------|----------------|----------------------|--------4-------4---|
-----0----|----------------|----------------------|--------------------|


-------------|----------------------|-------------|--------------------|
-------------|----------------------|-------------|--------------------|
-----4-------|--------4--------4----|-----4-------|--------4-------4---|
-------------|----------------------|-------------|--------------------|


-------------|----------------------|----------------|
-------------|--------0--------0----|-----0----------|
-----4-------|----------------------|----------------|
-------------|----------------------|----------------|


----------------------------|----------------------------|
----------------------------|----------------------------|
--4--------4--------4-------|-----4--------4--6--7-------|
----------------------------|----------------------------|


----------------------------|----------------------------|
----------------------------|----------------------------|
----------------------------|--------------------0-------|
--2--------2--------2-------|-----2--------2--4----------|


----------------------------|----------------------------|
----------------------------|----------------------------|
--2--------2--------2-------|-----2--------2--4--6--2----|
----------------------------|----------------------------|


----------------------------|----------------------------|
--2--------2--------2-------|-----2--------2--4--6-------|
----------------------------|----------------------------|
----------------------------|----------------------------|


----------------------------|----------------------------|
----------------------------|----------------------------|
--0--------0--------0-------|-----0--------0--2--4-------|
----------------------------|----------------------------|


----------------------------|----------------------------|
--4--------4--------4-------|-----4--------4-----2-------|
----------------------------|----------------------------|
----------------------------|----------------------------|


----------------------------|----------------------------|
--1--------1--------1-------|-----1--------1--2--4--1----|
----------------------------|----------------------------|
----------------------------|----------------------------|


----------------------------|----------------------------|
----------------------------|----------------------------|
----------------------------|----------------------------|
--4--------4--------4-------|-----4--------4-----4-------|


--------------------------------------6-------------|
--------------------------------6-------------------|
--4-----------------7-------------------------------|
----------------------------------------------------|


--------------6-----4-------|--2-------------------------|
-----------6----------------|-----------2--------4-------|
-----7-----------7----------|----------------------------|
----------------------------|----------------------------|


----------------------------|--------------------4-------|
----------------------------|-----------1-----4----------|
-----4-----4--6-----7-------|-2--------------------------|
----------------------------|----------------------------|


--------------4------1------|------9----8---|--6--4----------|
-1---------4------------4---|-2-------------|--------7--6----|
-----------------2----------|---------------|----------------|
----------------------------|---------------|----------------|


---------------------2------|----------------2-------1---|
-----------------2----------|------------2---------------|
-0--------4-----------------|----4-----------------------|
----------------------------|----------------------------|


-0---1---3-------------|-----------------------|
-----------------------|-----------------1-----|
-----------------------|-1-----1--4------------|
-----------------------|-----------------------|


----------------------------------------------------|
--2-----------------4-----------------5-------------|
----------------------------------------------------|
--0-----------------2-----------------3-------------|


--3-------------------|-------3-----5--------|
--------6---5---------|--6-------------------|
--1-------------------|-------1-----3--------|
--------4---3---------|--4-------------------|



--6-----------8-------------|--6----|--------6--4----|
--------------------6-------|-------|----------------|
--4-----------6-------------|--4----|----------------|
--------------------4-------|-------|----------------|


--------------------6-------|--------------------6-------|
--7-------------------------|--------------7-------------|
-----------7----------------|-----7-----7----------------|
----------------------------|----------------------------|


------------------6------|-------------------6-----|-------|
--7-------4--------------|-------------7-----------|--4----|
-------------------------|----8-----8--------------|--2----|
-------------------------|-------------------------|-------|


------4--2----|----------------------|----------------4------|
--------------|--6-------------9-----|-----------6-----------|
--------------|---------7------------|----7------------------|
--------------|----------------------|-----------------------|


--9-------------------------|--------------------4-------|
--------------------6-------|--------------6-------------|
-----------7----------------|-----7----------------------|
----------------------------|----------------------------|


--2-----------------2-------|--------------2-------------|
-----------------2----------|-----------2--------2-------|
--0--------4----------------|-----4----------------------|
----------------------------|----------------------------|


-4----------4---|---------4---8----|--6----|-----4----|
----------4-----|-------4----------|-------|----------|
------6---------|---6--------------|--4----|-----2----|
----------------|------------------|-------|----------|


--2----|----------|-------|----------|----------------|
-------|-----6----|--4----|-----2----|--0--0--0--0----|
--0----|----------|-------|----------|----------------|
-------|-----4----|--2----|-----0----|----------------|


----------------------------|----------------------------|
--0--0-----0--0--0--0--0----|----------------------------|
----------------------------|--4--------4--------4-------|
----------------------------|----------------------------|


----------------------------|----------------------------|
----------------------------|----------------------------|
--------------4--------4----|--------4-------------------|
----------------------------|----------------------------|


----------------------------|----------------------------|
----------------------------|--------------0--------0----|
--4--------4--------4-------|----------------------------|
----------------------------|----------------------------|


----------------------------|----------------------------|
--------0-------------------|----------------------------|
----------------------------|--4--------4--------4-------|
----------------------------|----------------------------|


----------------------------|----------------------------|
----------------------------|----------------------------|
-----4--------4--6--7-------|--0--------0--------0-------|
----------------------------|----------------------------|


----------------------------|----------------------------|
----------------------------|----------------------------|
-----0--------0--2--4-------|--2--------2--------2-------|
----------------------------|----------------------------|


----------------------------|----------------------------|
----------------------------|--2--------2--------2-------|
-----2--------2--4--6--2----|----------------------------|
----------------------------|----------------------------|


----------------------------|----------------------------|
-----2--------2--4--6-------|----------------------------|
----------------------------|--0--------0--------0-------|
----------------------------|----------------------------|


----------------------------|----------------------------|
----------------------------|--4--------4--------4-------|
-----0--------0--2--4-------|----------------------------|
----------------------------|----------------------------|


----------------------------|----------------------------|
-----4--------4-----2-------|--1--------1--------1-------|
----------------------------|----------------------------|
----------------------------|----------------------------|


----------------------------|----------------------------|
-----1--------1--2--4--1----|----------------------------|
----------------------------|----------------------------|
----------------------------|--4--------4--------4-------|


--------------------|-------------------------6-----|
--------------------|---------------------6---------|
--------------------|-4-----------7-----------------|
---4------4---4-----|-------------------------------|


--------------6-------4-------|------------------|
----------6-------------------|--7---------------|
--7---------------------------|-------0-----2----|
------------------------------|------------------|


----------------------||
----------------------||
-----4--------6-------||
----------------------||
Login or Register to remove this ad.