Ads

Besaid (Final Fantasy X-2) Guitar Tab

Submitted: Jul 07, 2020 by K0HIJIN (Last updated: Aug 01, 2020)

5
Average: 5 (1 vote)
Download | Listen
Game: Final Fantasy X-2
Composer(s): Noriko Matsueda, Takahito Eguchi
Style: Arrangement, Fingerstyle, Transcription
Series: Final Fantasy

AutoScroll: Slow | Medium | Fast
Game:           Final Fantasy X-2
Name of song:   Besaid
Composer:       Noriko Matsueda and Takahito Eguchi
Tabber:         K0HIJIN
Date:           July 7th, 2020





[Drop-D Tuning]  
                                        
  W                          H           E  E.  E.    W                         E  E.   E.   E.   E. S S
|-4-----------------------|-----------------2---0---|-0-----------------------|----5----1----0----------|
|-2-----------------------|--0-----------L----------|-3-----------------------|-3-----------------3-----|
|-2-----------------------|--1-----------L----------|-2-----------------------|-2--------------------2h4|
|-------------------------|-------------------------|-4-----------------------|-3-----------------------|
|-------------------------|-------------------------|-------------------------|-------------------------|
|-------------------------|-------------------------|-------------------------|-------------------------|


		                     
  H           E  E.   E.    E.   E.  H         E      W                         E.   E.  E  Q     Q
|-------------------------|-4----5---5---------L----|-0-----------------------|-0-----------2-----------|
|-2-----------L--3----5---|-0-----------------------|-2-----------------------|------3---2--------0-----|
|-4-----------L-----------|-6--------7---------L----|-4-----------------------|-4-----------2-----------|
|-4-----------L-----------|-7-----------------------|-------------------------|-0-----------2-----------|
|-------------------------|-------------------------|-------------------------|-------------------------|
|-------------------------|-------------------------|-------------------------|-------------------------|


                                                                    |--3--|
  H.                Q       E  E  Q     E  E.   E.    H.            S  S  S     E  E.   E.   E.   E. S S                                        
|-------------------------|-------------------------|-0-----------------------|----5----1----0----------|
|-2-----------------------|----4-h5-----L--7----5---|-3-------------------2---|-3-----------------3-----|
|-2-----------------2-----|-4-----------------------|-2-------------2--4------|-2--------------------2h4|
|-------------------------|-6-----------------------|-4-----------------------|-3-----------------------|
|-0-----------------------|-------------------------|-------------------------|-------------------------|
|-------------------------|-------------------------|-------------------------|-------------------------|



  H           E  E.   E.    E.   E.  H          E     S S                       E.   E.  E  Q     Q                                                            
|-2-----------L-----------|-4----5---5----------7---|-7-0---------------------|-0-----------------------|
|-2-----------L--3----5---|-0-----------------------|-------------------------|------3---2--------0-----|
|-2-----------L-----------|-6--------7--------------|-6-----------------------|-4-----------2-----------|
|-4-----------L-----------|-7-----------------------|-------------------------|-0-----------2-----------|
|-------------------------|-------------------------|-------------------------|-------------------------|
|-------------------------|-------------------------|-------------------------|-------------------------|



                 more accurately: 2 p1 h2, but 2h4p2 is smoother to play and keeps the progression.
                                     |
  E  E  E  E  E   E.  E.    E  E  E  E  E  E.  E.     E  E  E  E  E  E.  E.     H        E     E.  E. 
|-----------------0-------|----------------5--------|-------------------------|---------~0--------------|
|-------------------------|-------------------------|-------2-h3--------------|---------~0--------------|
|-2-------------------2---|-2-----2-h4-p2------2----|-2--2--------2------2----|-2-------~2---------2----|
|-------2-h4--L-----------|----2--------------------|----------------0--------|-------------------------|
|----0--------------------|-4-----------------------|-2-----------------------|-4--------------4--------|
|-0-----------------------|-------------------------|-------------------------|-------------------------|



                            Let everything ring

  E  E  E  Q      Q.        E S S E  S S E S S E S S  E  E  E  E  Q     Q       E  E  E  E  E   E.  E. 
|-------------------------|-------------------------|-------------------------|-----------------5-------|
|-------------------------|----------0-2-2---3---2-0|-------------------------|---------------------3---|
|-2---------------2-------|-1---2-------------------|-------------------------|-------------------------|
|-------2-h4--------------|-------------------------|-7-----6-h7--L-----7-----|-------4--7--L-----------|
|----0--------------------|---2------------4--------|----4--------------------|----5--------------------|
|-0-----------------------|-2------------3----------|-4-----------------------|-4-----------------------|



                                                      |----3----|
  E  E  E  E  E   E.  E.    E  E  E  E  E   E.  E.    Q    Q    Q    Q    Q     E  E  E  E  Q     Q 
|-----------------7-------|-------------------------|----------------5----4---|-0--------0--L-----------|
|-3--------0--L-------3---|-3--------2--L-------2---|-2----0----0----3----L---|-0-----------------------|
|-------------------------|-----------------2-------|-2----L----L-------------|----1-s2-----------2-----|
|----0--2-----------------|-------2-----------------|-------------------------|-------------------------|
|-------------------------|----4--------------------|-------------------------|-4-----------------------|
|-3-----------------------|-2-----------------------|-0-----------------------|-------------------------|



  Q    E  E  Q.      E      Q   E   H                 H.                 Q      Q.     E   Q     Q
|-2----4--0--L------------|-----0-----------------<>|12-----------------------|--------0---L-----0------|
|-3-------0--L-------0----|-2-------------------<>12|<>12---------------------|-3-----------------------|
|-2-------1--L------------|-4-------2---------------|--------------------1----|-2------2---L------------|
|-------------------------|-2-------4----------<>12-|-------------------------|-------------------------|
|-------------------------|-0-----------------------|-------------------------|-2------4---L------------|
|-------------------------|---------0---------------|-------------------------|-------------------------|



  E  E  E  E  H             H           H
|-------------------------|-------------------------|
|-3-p2--0-----3-----------|-L-----------0-----------|
|----------2--2-----------|-L-----------------------|
|-------------------------|-------------------------|
|-5-----------------------|-------------------------|
|-------------3-----------|-L-----------------------|




Login or Register to remove this ad.

1 comment on Besaid

Cool even if it's beyond me

5

This is beyond my absolute beginner level, but I can still hear it in a few parts that I can play. Love this song. Have you heard the extended version they released on one of the rarer instrumental albums? There's a lovely acoustic guitar section in it: https://www.youtube.com/watch?v=umj4_bKQ3v8